» » »

Cory Asbury - Reckless Love Tabs

Artists:  A B C D E F G H I J K L M N O P Q R S T U V W X Y Z # 

Reckless Love Tabs

(ver. 3) Click to play this song!
Cory Asbury
 Rating:
4.3/5 (16 votes)

 Reckless Love lessons Tabs too difficult? Try these video lessons and learn fast
 
                [Intro]
E|--12-12-12-12-11-11-11-11-9-9--------14-14-14-14-12-12-11-11-9-9---------|
G|------------------------------12-9-------------------------------12-9----|
G|-------------------------------------------------------------------------|
D|-------------------------------------------------------------------------|
A|-------------------------------------------------------------------------|
E|-------------------------------------------------------------------------|

[Verse 1]
E|-------------------------------------|
G|--5-5-5-5-4-4-4-4--------------------|
G|------------------4-4-4-4-4-4-4-4----|
D|-------------------------------------|
A|-------------------------------------|
E|-------------------------------------|

[Chorus 1] x4
E|--9---7----9---4---------------------|
G|--9---7---10---5---------------------|
G|--9---4----9---4---------------------| 
D|-------------------------------------|
A|-------------------------------------|
E|-------------------------------------|

[Verse 2]
E|--12-----------------------------------------------------|
B|---9----9---9---9---9---9---9---9---9---9---9---9---9----|
G|---9--9---9---9---9---9---9---9---9---9---9---9---9------|
D|---------------------------------------------------------|
A|---------------------------------------------------------|
E|---------------------------------------------------------|

E|---------------------------------12----------------------|
B|----9---9---9---9---9---9---9-----9-----9---9---9--------|
G|--9---9---9---9---9---9---9---9---9---9---9---9---9------|
D|---------------------------------------------------------|
A|---------------------------------------------------------|
E|---------------------------------------------------------|

E|---------------------------------------------------------|
B|----9---9---9---9---9---9---9---9---9---9---9---9--------|
G|--9---9---9---9---9---9---9---9---9---9---9---9----------|
D|---------------------------------------------------------|
A|---------------------------------------------------------|
E|---------------------------------------------------------|

[Bridge]
E|---9----9---------------------------------------------------|
B|-------------9---9---9---9---9---9---9---9---9---9---9---9--|
G|-9----9----9---9---9---9---9---9---9---9---9---9---9---9----|
D|------------------------------------------------------------|
A|------------------------------------------------------------|
E|------------------------------------------------------------|

E|----14--14--14--14--14--14--12--12--12--12--12--12--11--11--11--11--11--11----------------------|
B|----------------------------------------------------------------------------12--12--12----------|
G|-9---9---9---9---9---9---9---8---8---8---8---8---8---9---9---9---9---9---9---9---9---9--11--11--|
D|------------------------------------------------------------------------------------------------|
A|------------------------------------------------------------------------------------------------|
E|------------------------------------------------------------------------------------------------|

[Final Chorus] x4
E|-----------------------------------------------------------------|
G|--9------9-----9------9-----9------9-----9------9-----9------9---|
G|-----11-----------11-----------11-----------11-----------11------|
D|------------9------------9------------9------------9-------------|
A|-----------------------------------------------------------------|
E|-----------------------------------------------------------------|
            
Submit corrections


        Reckless Love lessons Hard to play? Try these video lessons and learn fast Reckless Love lessons
        
↑ Back to top | Tablatures and chords for acoustic guitar and electric guitar, ukulele, drums are parodies/interpretations of the original songs. You may use it for private study, scholarship, research or language learning purposes only