» » »

Cory Asbury - Reckless Love Tabs

Artists:  A B C D E F G H I J K L M N O P Q R S T U V W X Y Z # 

Reckless Love Tabs

(ver. 2) Click to play this song!
Cory Asbury
 Rating:
4.4/5 (8 votes)

 Reckless Love lessons Tabs too difficult? Try these video lessons and learn fast
 
                [Intro]

e|--------------|---------|---------|-------------|
B|--10-10-10-10-|-9-9-9-9-|-7-7-5-2-|-------0h2p0-|
G|--------------|---------|---------|-------------|
D|--------------|---------|---------|-------------|
A|--------------|---------|---------|-------------|
E|--------------|---------|---------|-------------|

e|--------------|-----------|---------|-------------|
B|--12-12-12-12-|-10-10-9-9-|-7-7-5-2-|-------0h2p0-|
G|--------------|-----------|---------|-------------|
D|--------------|-----------|---------|-------------|
A|--------------|-----------|---------|-------------|
E|--------------|-----------|---------|-------------|


[Verse 1]

No Playing


[Chorus]

Light chords: 6 (F#m), 5 (E), 4 (D), 1 (A)


[Instrumental]

e|--------------|---------|---------|-------------|
B|--10-10-10-10-|-9-9-9-9-|-7-7-5-2-|-------0h2p0-|
G|--------------|---------|---------|-------------|
D|--------------|---------|---------|-------------|
A|--------------|---------|---------|-------------|
E|--------------|---------|---------|-------------|

e|--------------|-----------|---------|-------------|
B|--12-12-12-12-|-10-10-9-9-|-7-7-5-2-|-------0h2p0-|
G|--------------|-----------|---------|-------------|
D|--------------|-----------|---------|-------------|
A|--------------|-----------|---------|-------------|
E|--------------|-----------|---------|-------------|


[Verse 2]
                                               Let it ring with delay
e|---------------------|---------------------|-9-------------------|-----9----9----9---9-|
B|---------------------|---------------------|-10------------------|--10---10---10---10--|
G|---------------------|---------------------|-9-------------------|-9----9----9----9----|  x1
D|---------------------|---------------------|---------------------|---------------------|
A|---------------------|---------------------|---------------------|---------------------|
E|---------------------|---------------------|---------------------|---------------------|

e|-----9----9----9---9-|-----9----9----9---9-|-----9----9----9---9-|-----9----9---10---9-|
B|--10---10---10---10--|--10---10---10---10--|--10---10---10---10--|--10---10---10---10--|
G|-9----9----9----9----|-9----9----9----9----|-9----9----9----9----|-9----9----9----9----|  x3
D|---------------------|---------------------|---------------------|---------------------|
A|---------------------|---------------------|---------------------|---------------------|
E|---------------------|---------------------|---------------------|---------------------|


[Chorus]

e|------9---7----7/9-|------9---7----7/9-|------9---10---9---|------9---7----7/9-|
B|---10---10---10----|---10---10---10----|---10---10---10----|---10---10---10----|
G|-9-----------------|-9-----------------|-9-----------------|-9-----------------|
D|-------------------|-------------------|-------------------|-------------------|
A|-------------------|-------------------|-------------------|-------------------|
E|-------------------|-------------------|-------------------|-------------------|


[Bridge]

Play riff from 3rd run through, can do atmospheric chords before

e|--12-12-12-12-12-12-|-10-10-10-10-10-10-|-9-9-9-9-9-9-|---------------|
B|--------------------|-------------------|-------------|-9-9-9---------|
G|--------------------|-------------------|-------------|-------9-------|
D|--------------------|-------------------|-------------|---------12-12-|
A|--------------------|-------------------|-------------|---------------|
E|--------------------|-------------------|-------------|---------------|

            
Submit corrections


        Reckless Love lessons Hard to play? Try these video lessons and learn fast Reckless Love lessons
        
↑ Back to top | Tablatures and chords for acoustic guitar and electric guitar, ukulele, drums are parodies/interpretations of the original songs. You may use it for private study, scholarship, research or language learning purposes only