» » »

Cory Asbury - Reckless Love Tabs

Artists:  A B C D E F G H I J K L M N O P Q R S T U V W X Y Z # 

Reckless Love Tabs

(ver. 1) Click to play this song!
Cory Asbury
 Rating:
4.4/5 (14 votes)

 Reckless Love lessons Tabs too difficult? Try these video lessons and learn fast
 
                
[Intro]

e|--14-14-14-14-|-13-13-13-13-|------------------------------------------------|
B|--------------|-------------|-16-16-14---------------------------------------|
G|--------------|-------------|-----------15~----------------------------------|
D|--------------|-------------|------------------------------------------------|
A|--------------|-------------|------------------------------------------------|
E|--------------|-------------|------------------------------------------------|

e|--16-16-16-16-|-14-14--13-13-|-----------------------------------------------|
B|--------------|--------------|-16-16--14-------------------------------------|
G|--------------|--------------|-------------15~-------------------------------|
D|--------------|--------------|-----------------------------------------------|
A|--------------|--------------|-----------------------------------------------|
E|--------------|--------------|-----------------------------------------------|

2nd Verse (Starts at the end of the first "Me")(Repeat G15 and D16 until the 3rd "Me" then go again)

e|--14-------------------------------------------------------------------------|
B|--14-------------------------------------------------------------------------|
G|------15---------------------------------------------------------------------|
D|---------16------------------------------------------------------------------|
A|-----------------------------------------------------------------------------|
E|-----------------------------------------------------------------------------|

Chorus

e|--------------|--------------|--------------|--------------------------------|
B|--------------|--------------|--------------|--------------------------------|
G|--15-13-15----|--15-13-15----|--15-13-15----|-15-13-15-----------------------|
D|-----------11-|-----------11-|-----------11-|--------------------------------|
A|--------------|--------------|--------------|--------------------------------|
E|--------------|--------------|--------------|--------------------------------|


Bridge ( Repeat for the rest of the Bridge)

e|--16-16-16-16-16-16-|-14-14-14-14-14-14-|-13-13-13-13-13-13-|-----------------------|
B|--------------------|-------------------|-------------------|-14-14-14-14-----------|
G|--------------------|-------------------|-------------------|--------------13-13--15|
D|--------------------|-------------------|-------------------|-----------------------|
A|--------------------|-------------------|-------------------|-----------------------|
E|--------------------|-------------------|-------------------|-----------------------|            
Submit corrections


        Reckless Love lessons Hard to play? Try these video lessons and learn fast Reckless Love lessons
        
↑ Back to top | Tablatures and chords for acoustic guitar and electric guitar, ukulele, drums are parodies/interpretations of the original songs. You may use it for private study, scholarship, research or language learning purposes only