» » »

Corey Smith - What Happened Acoustic Tabs

Artists:  A B C D E F G H I J K L M N O P Q R S T U V W X Y Z # 

What Happened Acoustic Tabs

(ver. 2) Click to play this song!
Corey Smith
 Rating:
4.3/5 (26 votes)

 What Happened Acoustic lessons Tabs too difficult? Try these video lessons and learn fast
 
                [Intro/Verse]
"Heard the front door slam..."
e|-----------------------------------------------------------------------------------------------|
B|------------------------------------------------------2X------------2h4----4-------------------|
G|---------------1X-------------------------------------2X------------2h4----4-------------------|
D|---------------2X---------------6X--------------------2X------------2h4----4-------------------|
A|-----2p0-------2X---------------6X--------------0-----0X------------2------2-------------------|
E|---------0-----0X---------4-----4X-------------------------------------------------------------|

[Bridge]
"I don't know where it all went wrong..."
e|-------------------------------------------------------------|
B|---------4h5---------4----------4h5---------4----2-----------|
G|---------4h6---------4----------4h6---------4----2-----------|
D|---------4h6---------4----------4h6---------4----2-----------|
A|---------4-----------2----------4-----------2----0-----------|
E|-------------------------------------------------------------|

[Chorus]
"What happened to forever..."
e|-----0------0------0-------0--0--0--------|
B|-----0------4------5-------4--2--0--------|
G|-----1------5------6-------5--3--1--------|
D|-----2------6------7-------6--4--2--------|
A|-----2------6------7-------6--4--2--------|
E|-----0------4------5-------4--2--0--------|

*Play above twice then*
e|-----0------0------0-------0--------|
B|-----0------4------5-------7--------|
G|-----1------5------6-------8--------|
D|-----2------6------7-------9--------|
A|-----2------6------7-------9--------|
E|-----0------4------5-------7--------|            
Submit corrections


        What Happened Acoustic lessons Hard to play? Try these video lessons and learn fast What Happened Acoustic lessons
        
↑ Back to top | Tablatures and chords for acoustic guitar and electric guitar, ukulele, drums are parodies/interpretations of the original songs. You may use it for private study, scholarship, research or language learning purposes only