» » »

Corey Smith - Good Life Tabs

Artists:  A B C D E F G H I J K L M N O P Q R S T U V W X Y Z # 

Good Life Tabs

(ver. 1) Click to play this song!
Corey Smith
 Rating:
4/5 (4 votes)

 Good Life lessons Tabs too difficult? Try these video lessons and learn fast
 
                -------------------------------------------------------------------------------
-------------------------------------------------------------------------------

I saw the other chords for this song, but unless he changes something for the live
of this song, there's a very definite chord progression heard in the base line on the album
much like in Twenty One. Sounds like more than just the same two chords. This might not 
exact, but I think it sounds a lot better.

Tuning: standard

VERSES
e|----2----2----2--------------2----2----2------------|
B|----3----3----3----2----3----3----3----3------------|
G|----2----2----0----2----0----2----2----2------------|
D|----0--------------2----0----0---------0------------|
A|---------4----2----0----2---------4---------(0h2)---|
E|------------------------3---------------------------|


CHORUS (G, A, D)
e|--------------2-------|
B|----3----2----3-------|
G|----0----2----2-------|
D|----0----2----0-------|
A|----2----0------------|
E|----3-----------------|


===============================================================================
            
Submit corrections


        Good Life lessons Hard to play? Try these video lessons and learn fast Good Life lessons
        
↑ Back to top | Tablatures and chords for acoustic guitar and electric guitar, ukulele, drums are parodies/interpretations of the original songs. You may use it for private study, scholarship, research or language learning purposes only