» » »

Corey Smith - Something To Lose Tabs

Artists:  A B C D E F G H I J K L M N O P Q R S T U V W X Y Z # 

Something To Lose Tabs

(ver. 3) Click to play this song!
Corey Smith
 Rating:
4.3/5 (6 votes)

 Something To Lose lessons Tabs too difficult? Try these video lessons and learn fast
 
                (Intro)
Capo 4th fret


E|------------------------------------------------------------|
B|----3----------------------------3--------------------------|
G|----2-------0---2----2----0------0h2------------------------|
D|--0-----4-------------------0-------------------------------|
A|----------------0-------------------------------------------|
E|--------2---3--------5p3--2---2-----------------------------|


E|------------------------------------------------------------|
B|----3-----------3------2------3-------5-------0-------------|
G|----2-------0---2--2---2--2---2--2----2--2----0-------------|
D|--0-----4---------------------------------------------------|
A|----------------0---0------0-------0-------0----------------|
E|--------2---3-----------------------------------------------|

i gotta go do damn homework or i would try to figure out the rest! somebody who knows 
they're doing please help!
            
Submit corrections


        Something To Lose lessons Hard to play? Try these video lessons and learn fast Something To Lose lessons
        
↑ Back to top | Tablatures and chords for acoustic guitar and electric guitar, ukulele, drums are parodies/interpretations of the original songs. You may use it for private study, scholarship, research or language learning purposes only