» » »

Corey Smith - If I Could Do It Again Tabs

Artists:  A B C D E F G H I J K L M N O P Q R S T U V W X Y Z # 

If I Could Do It Again Tabs

(ver. 1) Click to play this song!
Corey Smith
 Rating:
3.7/5 (6 votes)

 If I Could Do It Again lessons Tabs too difficult? Try these video lessons and learn fast
 
                INTRO & VERSES
e|--------------------------------------------|
B|--------------------------------------------|
G|-----4-----3h4-----4-----4------------------|
D|--------------------------------------------|
A|----2------------------------------2--------|
E|----------2-------4-----0-----2h4-----------|


PRECHORUS
e|----------0---------0------|
B|----------0---------0------|
G|-----3----1----3----1------|
D|-----4----2----4----2------|
A|-----4----2----4----2------|
E|-----2----0----2----0------|


CHORUS
e|--------------0------|
B|----4---------0------|
G|----4----3----1------|
D|----4----4----2------|
A|----2----4----2------|
E|---------2----0------|

I'd break...
e|-----------------------------0------|
B|-----------------------------0------|
G|--------------6--------------1------|
D|----6----8----9----6----8----2------|
A|----6----8----9----6----8----2------|
E|----4----6----7----4----6----0------|


3RD VERSE INTRO
e|------------------------------------|
B|-------------------------5h0-4h0-2h0|
G|3h4-4-4--3h4-4-4--3h4-4-4-----------|
D|------------------------------------|
A|------------------------------------|
E|------------------------------------|

BRIDGE 
e|-------------------------------------------|
B|-----------------7-----4----------7--------|
G|----8------------8-----4----------8--------|
D|----9------------------x-------------------|
A|----x------------------x-------------------|
E|----7--------6---------4-----6-------------|



OUTRO: play the Intro line and end on a x2444xx chord

By Duggy.
            
Submit corrections


        If I Could Do It Again lessons Hard to play? Try these video lessons and learn fast If I Could Do It Again lessons
        
↑ Back to top | Tablatures and chords for acoustic guitar and electric guitar, ukulele, drums are parodies/interpretations of the original songs. You may use it for private study, scholarship, research or language learning purposes only