» » »

Corey Smith - Carolina Tabs

Artists:  A B C D E F G H I J K L M N O P Q R S T U V W X Y Z # 

Carolina Tabs

(ver. 2) Click to play this song!
Corey Smith
 Rating:
4/5 (4 votes)

 Carolina lessons Tabs too difficult? Try these video lessons and learn fast
 
                -------------------------------------------------------------------------------
-------------------------------------------------------------------------------

Tuning: Drop D

INTRO (first chord is an upstroke)
e|----5----2---5---0---2---0-----5----2---0---2------|
B|----3----3---3---3---3---3-----3----3---3---3------|
G|----2----2---2---2---2---2-----2----2---2---2------|
D|----0~-------------------------0~------------------|
A|----0~-------------------------0~------------------|
D|----0~-------------------------0~------------------|

e|----5----2---5---0---2---0----2----0----2------|
B|----3----3---3---3---3---3----3----3----3------|
G|----2----2---2---2---2---2----2----2----2------|
D|----0~------------------------0----0----0------|
A|----0~------------------------0----0----0------|
D|----0~------------------------0----0----0------|


VERSE
e|----2----2----2---------2------|
B|----3----3----3---------3------|
G|----2----2----2----9----2------|
D|----0----0----0----7----0------|
A|----0----0----0----7----0------|
D|----0----0----0----7----0------|


CHORUS "Do you remember..."
e|---------2---------2-----------------------------------|
B|---------3---------3-----------------------------------|
G|----7----2----7----2----9----7----9--------------------|
D|----5----0----5----0----7----5----7-----play intro-----|
A|----5----0----5----0----7----5----7--------------------|
D|----5----0----5----0----7----5----7--------------------|


After 2nd Chorus, you can just play the D chord or try something like this
e|---------------------------------------------------------------------|
B|----------3--------------3---------------5--------7---5---3---2------|
G|----2h4-------2----2h4--------2----4h6-------6----6---4---2---2------|
D|----0---------0----0----------0----0---------0----0---0---0---0------|
A|----0----------------------------------------------------------------|
D|----0----------------------------------------------------------------|


BRIDGE "I can't let it go"
e|-----------------------|------------|
B|-----------------------|------------|
G|----4----6----7--------|----4-------|
D|----2----4----5----x3--|----2-------|
A|----2----4----5--------|----2-------|
D|----2----4----5--------|----2-------|
Play verse chords through once


LAST CHORUS "It all makes one hell of a reminder..."
e|------------------------------------------|
B|------------------------------------------|
G|----9----7----9----11---12----7----9------|
D|----7----5----7----9----10----5----7------|
A|----7----5----7----9----10----5----7------|
D|----7----5----7----9----10----5----7------|


The Ending is the same as the Intro


| h  hammer-on
| ~  vibrato
===============================================================================
            
Submit corrections


        Carolina lessons Hard to play? Try these video lessons and learn fast Carolina lessons
        
↑ Back to top | Tablatures and chords for acoustic guitar and electric guitar, ukulele, drums are parodies/interpretations of the original songs. You may use it for private study, scholarship, research or language learning purposes only