Home » C » Corey Hart »

Corey Hart - Sunglasses At Night Tabs

Artists:  A B C D E F G H I J K L M N O P Q R S T U V W X Y Z # 

Sunglasses At Night Tabs

(ver. 3) Click to play this song!
Corey Hart
Outro Guitar Solo

   
       Slow Dive  \.5/ \.5/\.5/    
f |---|------------------------|------------------------|---------------------------7--5-----------------------|
C |-8-|------------------------|------------------------|---------------8--8--8--5--------8--------------------|
G#|---|------------------------|5-----------5---5\4-----|7-7-7-7-7p5-------------------------7b(8)br(7)p5-----5|
D#|---|-*7---------------------|---7-7---/7----7------7-|-------------7------------------------------------7---|
A#|---|-*7------p0-------------|------------------------|------------------------------------------------------|
F |---|-*7---------------------|------------------------|------------------------------------------------------|
       *slight A.H. on barre  

  hold bend  T     hold bend  T    hold bend   T     This time pull off tapped note to still bent 7th fret
f |---------------------------------------------------------------------------|
C |---------------------------------------------------------------------------|
G#|7b(9)----17\(15)p7b(9)----15\(14)p7b(9)-----14\(12)7pb(9)br(7)p5------9----|
D#|---------------------------------------------------------------------------|
A#|---------------------------------------------------------------------------|
F |---------------------------------------------------------------------------|


f |--------------------------------------------------------------------------|
C |--5-8---5-8---5-----------------------------------------------------------|
G#|8-----8-----8---7h9-5h7-5\4-----------------------------------------------|
D#|----------------------------7-5-5-----5-----------------------------------|
A#|----------------------------------0h5---5h7-5h7-7/8-5/7-------------------|
F |--------------------------------------------------------------------------|
                           
                                                             pick bent note 4 times
f |-----------------------------------------------------------------------------------------|
C |-----------------------------20b(22)---br(20)p17--20b(22)-(22)(22)(22)(22)(22)br(20)p17--|
G#|7h9-5h7-5/4---4-5---4--------------------------------------------------------------------|
D#|------------7-----7---5-7----------------------------------------------------------------|
A#|-----------------------------------------------------------------------------------------|
F |-----------------------------------------------------------------------------------------|

f |-----------------------------------------------------------------------------------|
C |20b(24)br(20)-17-20----17-20p17----20----19-------18----------12-12----------------|
G#|--------------------20----------19----19----19p17----17-16----------14b(16)--14----|
D#|--------------------------------------------------------------------------------14-|
A#|-----------------------------------------------------------------------------------|
F |-----------------------------------------------------------------------------------|

               hand slide              hand slide
f |----------------------------------------------------------------------------------|
C |------5--5------------5--5-------------------5--5---------5--5--------------------|
G#|------5--5------------5--5-------------------5--5---------5--5--------------------|
D#|--/7--------7--(/7)---------7---5--7----(/7)-------7------------7-----------------|
A#|---------------------------------------------------------------------7------------|
F |----------------------------------------------------------------------------------|

                                                                                                  T 
f |--------5-7----------------5-7----------------5-7-----------------------------------------------------------|
C |------------------------------------------------------------------------------------------------------------|
G#|----5-7-----7-5-7------5-7-----7-5-7------5-7-----7-5-7--5h7p5\4-5p4----4-5---4--------5--7b(9)21b(*24)p7p5-|
D#|---------------------------------------------------------------------7-----7----5/7-------------------------|
A#|5-7----------------5-7----------------5-7-------------------------------------------------------------------|
F |------------------------------------------------------------------------------------------------------------|
                                                           *bend tapped note at 21st fret an additional 1/2 step

     \1/ dive     \1/  \1/  \1/  \1/  \1/   \1/\1/ \1/\1/   \1/ dive  A.H. \1/ \1/  \1/  \1/ dive
f |--------------------------------------------------------------------------------------------------|
C |--------------------------------------------------------------------------------------------------|
G#|---14----------(12)-(12)-(12)-(12)-(12)-(12)p9-----------12--------11-(11)-(11)-(11)-(11)---------|
D#|--------------------------------------------------------------------------------------------------|
A#|--------------------------------------------------------------------------------------------------|
F |--------------------------------------------------------------------------------------------------|

  slight palm mute
F |--------------------------------------------------------------------------|
C |--------------------------------------------------------------------------|
G#|--9--7--5--4--------------------------------------------------------------|
D#|--------------5--7-----5--------------------------------------------------|
A#|--------------------------5--3--2-----------------------------------------|
F |-----------------------------------3--5-----------------------------------|
            
Submit corrections

↑ Back to top | Tablatures and chords for acoustic guitar and electric guitar, ukulele, drums are parodies/interpretations of the original songs. You may use it for private study, scholarship, research or language learning purposes only