Home » C » Corey Hart »

Corey Hart - Sunglasses At Night Tabs

Artists:  A B C D E F G H I J K L M N O P Q R S T U V W X Y Z # 

Sunglasses At Night Tabs

(ver. 2) Click to play this song!
Corey Hart
   Pick Scratch 
e|----------------------------------------------------------------------------|
B|----------------------------------------------------------------------------|
G|----------------------------------------------------------------------------| 1st Chorus
D|--\x\x\x\--------------\4~-4/8-11--11-8~-xx-11--11-8~-6-8~~~~~~~\4~-4/8-11--|
A|---\x\x\x\------------------------------------------------------------------|
E|----------------------------------------------------------------------------|

e|----------------------------------------------------------------------------|
B|----------------------------------------------------------------------------|
G|----------------------------------------------------------------------------| 1st Chorus
D|-11-8~-xx-11--11-8~-6-8~~~~~~~\4~-4/8-11--11-8------------------------------|
A|----------------------------------------------6~~8b9br8~8p6-----------------|
E|----------------------------------------------------------------------------|

   Pick Scratch 
e|----------------------------------------------------------------------------|
B|----------------------------------------------------------------------------|
G|----------------------------------------------------------------------------| 2nd Chorus
D|--\x\x\x\--------------\4~-4/8-11--11-8~-xx-11--11-8~-6/8~~~~~~~\4~-4/8-11--|
A|---\x\x\x\------------------------------------------------------------------|
E|----------------------------------------------------------------------------|

e|----------------------------------------------------------------------------|
B|----------------------------------------------------------------------------|
G|----------------------------------------------------------------------------| 2nd Chorus
D|-11-8~-xx-11--11-8~-6-8~~~~~~~\4~-4/8-11--11-8------------------------------| 
A|----------------------------------------------6~~~~~------------------------|
E|----------------------------------------------------------------------------|
                                                                        Tremolo pick
e|----------------6-4---------------------14b16~~-----------------------------|
B|-------6b~~4~-4----6-5-4---pb6-----------------14-13------------------------|
G|-6-3~--------6----------6-3---6~--------------------15-13-15~~13/15-15151517| 1st Solo
D|------3--------------------------4-3----------------------------------------|
A|------------------------------------6-4-------------------------------------|
E|---------------------------------------6------------------------------------|
  
e|-------------16~~~~/18~~20~16--------------------------21-20-18-------------|
B|----------16~--------------------------------------------------21-19-18-----|
G|1717181818---------------------17-18-17-15--17-------------------------20-18| 1st Solo
D|----------------------------------------------13~~\1/13---------------------|
A|----------------------------------------------------------------------------|
E|----------------------------------------------------------------------------|

e|----------------------------------------------------------------------------|
B|----------------------------------------------------------------------------|
G|----------------------------------------------------------------------------| 1st Solo
D|---20-18--------------------------------------------------------------------|
A|---------21-20-18-----------------------------------------------------------|
E|------------------21-20-18~-------------------------------------------------|

   Pick Scratch 
e|----------------------------------------------------------------------------|
B|----------------------------------------------------------------------------|
G|----------------------------------------------------------------------------| 3rd Chorus
D|--\x\x\x\--------------\4~-4/8-11--11-8~-xx-11--11-8~-6-8~~~~~~~\4~-4/8-11--|
A|---\x\x\x\------------------------------------------------------------------|
E|----------------------------------------------------------------------------|

e|----------------------------------------------------------------------------|
B|----------------------------------------------------------------------------|
G|----------------------------------------------------------------------------| 3rd Chorus
D|-11-8~-xx-11--11-8~-6-8~~~~~~~\4~-4/8-11--11-8~-xx-11--11-8~-6-8~~~~~~~\4~--|
A|----------------------------------------------------------------------------|
E|----------------------------------------------------------------------------|

e|----------------------------------------------------------------------------|
B|----------------------------------------------------------------------------|
G|----------------------------------------------------------------------------| 3rd Chorus
D|-4/8-11--11-8-xx-11--11-8---------------------------------------------------|
A|-------------------------6~-------------------------------------------------|
E|---------------------------6~~----------------------------------------------|

e|-----------------------------------------8-----------------11--9--8---------|
B|------------------9-------------------9~--11-9---------------11-11------9~-8|
G|-----------------------6---xx-6-5---8~--------8~--------10~--------10~------| Final Solo
D|--6--6-8~~~~6-8~~~------8~~------8~~------------11~10-8~--------------------|
A|----------------------------------------------------------------------------|
E|--------------------6~~-----------------------------------------------------|

e|---------------------16b18~~-16b18-18-18-18b20-21-20-18---------------------|
B|-9-11-9-8-9--------------------------------------------21-19-18-------------|
G|-----------10~~------------------------------------------------20-18--------|
D|---------------------------------------------------------------------20-18--|
A|----------------------------------------------------------------------------|
E|----------------------------------------------------------------------------|

e|----------------------------------------------------------------------------|
B|----------------------------------------------------------------------------|
G|----------------------------------------------------------------------------|
D|--------------------11-11-8-xx-11-11-8~-6-8~-11-11-8-xx-11-11-8~-6-8~-------|
A|-21-20-18-------------------------------------------------------------------|
E|---------21-20-18\----------------------------------------------------------|

e|-----------11~--------------------11-13--11-13~-----------------------------|
B|--14-13-11----14~-13p11--11~-13-14-----14-------14-11h13p11h13p11-14~-13-11-|
G|-----------------------13---------------------------------------------------|
D|----------------------------------------------------------------------------|
A|----------------------------------------------------------------------------|
E|----------------------------------------------------------------------------|
                                                                    
e|------------11-----11-------------------------------------------------------|
B|---11~-13-14--13-14--13h14p13h14p13\----------------------------------------|
G|-13-------------------------------------------------------------------------|
D|-------------------------------------8-11-8-10p8h10-11~-10-8--8~-8-10-11-10-|
A|------------------------------------------------------------11--------------|
E|----------------------------------------------------------------------------|
                            Fades Out
e|----------------------------------------------------------------------------|
B|----------------------------------------------------------------------------|
G|---8------------------------------------------------------------------------|
D|-11-11-10-8-10--8-----------------------------------------------------------|
A|--------------11-10-11-8~---------------------------------------------------|
E|----------------------------------------------------------------------------|            
Submit corrections

↑ Back to top | Tablatures and chords for acoustic guitar and electric guitar, ukulele, drums are parodies/interpretations of the original songs. You may use it for private study, scholarship, research or language learning purposes only