» » »

Conor Oberst And The Mystic Valley Band - Souled Out Tabs

Artists:  A B C D E F G H I J K L M N O P Q R S T U V W X Y Z # 

Souled Out Tabs

(ver. 2) Click to play this song!
Conor Oberst And The Mystic Valley Band
 Rating:
4.3/5 (6 votes)

 Souled Out lessons Tabs too difficult? Try these video lessons and learn fast
 
                (Intro)
----------------------------------------------------------------------------
        Souled Out!!! - Conor Oberst And The Mystic Valley Band
----------------------------------------------------------------------------



Here's the first lead part to the song I'l work out the rest soon, but here's something 
keep you all entertained.

Give me some feedback and tell me what you think :)


e|-------------------------------------------------------------------------|
B|-------------------------------------------------------------------------|
G|-----7-7----7-9-9^11 ^11 11v9-7------------------------------------------|
D|-7/9------9---------------------9-7-----7-7------------------------------|
A|------------------------------------7/9-----9-7-5~~-----5-----5~~-7-7/9--|
E|----------------------------------------------------5h7---5h7------------|


e|-------------------------------------------------------------------------|
B|-------------------------------------------------------------------------|
G|-------------------------------------------------------------------------|
D|--7----7-----------------------------------------------------------------|
A|----9----9-7~-5~~--------------------------------------------------------|
E|-------------------------------------------------------------------------|

/  -  Slide
^  -  Bend
v  -  Release bend
h  -  Hammer on
~  -  Let the note ring
            
Submit corrections


        Souled Out lessons Hard to play? Try these video lessons and learn fast Souled Out lessons
        
↑ Back to top | Tablatures and chords for acoustic guitar and electric guitar, ukulele, drums are parodies/interpretations of the original songs. You may use it for private study, scholarship, research or language learning purposes only