» » »

Conor Oberst And The Mystic Valley Band - Milk Thistle Tabs

Artists:  A B C D E F G H I J K L M N O P Q R S T U V W X Y Z # 

Milk Thistle Tabs

(ver. 1) Click to play this song!
Conor Oberst And The Mystic Valley Band
 Rating:
4.6/5 (10 votes)

 Milk Thistle lessons Tabs too difficult? Try these video lessons and learn fast
 
                Regular Tuning 
Capo 4th Fret

Intro
   
|-------0--------------2--------------0------2-------3-------|
|---------1---1----------3---3-------------------------3---3-|
|-----------0--------------4---------------2-------------0---|
|----2---------------4--------------2----0--------0----------|
|--3---------------2--------------3--------------------------|
|-----------------------------------------------3------------|


|------0-----2--------------------0---------------2----------|
|-------------------0----------------1---1----------3---3----|
|----------2----------0---0------------0--------2-----2------|
|----2---0--------2-----2-------2-------------0--------------|
|--3------------2-------------3------------------------------|
|------------------------------------------------------------|

Verse 1

|-------0--------------2--------------0------2-------3-------|
|---------1---1----------3---3-------------------------3---3-|
|-----------0--------------4---------------2-------------0---|
|----2---------------4--------------2----0--------0----------|
|--3---------------2--------------3--------------------------|
|-----------------------------------------------3------------|

   Milk thistle, milk thistle     Let me go slow

|------0-----2--------------------0---------------2----------|
|-------------------0----------------1---1----------3---3----|
|----------2----------0---0------------0--------2-----2------|
|----2---0--------2-----2-------2-------------0--------------|
|--3------------2-------------3------------------------------|
|------------------------------------------------------------|

   Help me go slow...        I been...       carrying on.  I'm not

|------0--------------3-------------0-------------3----------|
|--------1---1----------3---3---------1---1---------3---3----|
|----------0--------------0-------------0-------------0------|
|----2----------------------------2--------------------------|
|--3----------------2-----------3---------------2------------|
|-----------------3---------------------------3--------------|

  Scared of nothing...          I'll go pound for pound.    I keep

|------0--------------3-------------0---------------2--------|
|--------1---1----------3---3---------1---1-----------3---3--|
|----------0--------------0-------------0---------2-----2----|
|----2----------------------------2-------------0------------|
|--3----------------2-----------3----------------------------|
|-----------------3------------------------------------------|

  Death on my mind like a....          heavy crown.       If I 

|------0-------------2--------------0---------------2--------|
|--------1---1---------3---3----------1---1-----------3---3--|
|----------0-------2-----2---------------0---------2-----2---|
|----2-----------0-----------------2-------------0-----------|
|--3---------------------------3-----------------------------|
|------------------------------------------------------------|
 
  Go...    to heaven...  I'll be.. bored as hell.   Like a 

|------0-------------2-----------0~--------0~----------------|
|--------1---1---------3---3-----1~--------1~----------------|
|----------0-------2-----2-------2~--------2~----------------|
|----2-----------0---------------2~--------2~----------------|
|--3-----------------------------0~--------0~----------------|
|------------------------------------------------------------|

  little baby...  at the..       bottom oooooof a well.

|------3----------------------3---------3~-------------------|
|--------3---3------------------3---3---3~-------------------|
|----------0----------------------0-----0~-------------------|
|---------------------------------------0~-------------------|
|----2-----------2h3--3p2---2-----------2~-------------------|
|--3----------------------3-------------3~-------------------|

Verse 2

|-------0--------------2--------------0------2-------3-------|
|---------1---1----------3---3-------------------------3---3-|
|-----------0--------------4---------------2-------------0---|
|----2---------------4--------------2----0--------0----------|
|--3---------------2--------------3--------------------------|
|-----------------------------------------------3------------|

   Fairchild, fairchild            How are you man?       Did you

|------0-----2--------------------0---------------2----------|
|-------------------0----------------1---1----------3---3----|
|----------2----------0---0------------0--------2-----2------|
|----2---0--------2-----2-------2-------------0--------------|
|--3------------2-------------3------------------------------|
|------------------------------------------------------------|

   Fix that storefront... did you..     start that band?   Don't be

|------0--------------3-------------0-------------3----------|
|--------1---1----------3---3---------1---1---------3---3----|
|----------0--------------0-------------0-------------0------|
|----2----------------------------2--------------------------|
|--3----------------2-----------3---------------2------------|
|-----------------3---------------------------3--------------|

  Scared of nothing...          you go pound for pound.    You bring

|------0--------------3-------------0---------------2--------|
|--------1---1----------3---3---------1---1-----------3---3--|
|----------0--------------0-------------0---------2-----2----|
|----2----------------------------2-------------0------------|
|--3----------------2-----------3----------------------------|
|-----------------3------------------------------------------|

  peace to midnight...     like a..         spotted owl.  I'll be 

|------0-------------2--------------0---------------2--------|
|--------1---1---------3---3----------1---1-----------3---3--|
|----------0-------2-----2---------------0---------2-----2---|
|----2-----------0-----------------2-------------0-----------|
|--3---------------------------3-----------------------------|
|------------------------------------------------------------|
 
  rooting for you...      like my...      favorite team.  IF some-

|------0-------------2-----------0~--------0~----------------|
|--------1---1---------3---3-----1~--------1~----------------|
|----------0-------2-----2-------2~--------2~----------------|
|----2-----------0---------------2~--------2~----------------|
|--3-----------------------------0~--------0~----------------|
|------------------------------------------------------------|

  body sweats you.....      you just point em out to me.
|------3----------------------3------------------------------|
|--------3---3------------------3---3------------------------|
|----------0----------------------0--------------------------|
|------------------------------------------------------------|
|----2-----------2h3--3p2---2-----------3--2--0--------------|
|--3----------------------3----------------------------------|

|--0----------------------0----0----0------------------------|
|--1----------------------1----1----0------------------------|
|--2 {light strumming}----2----2----1{light strumming}-------|
|--2----------------------2----2----0------------------------|
|--0----------------------0----0----2------------------------|
|------------------------------------------------------------|
 
    All the lights and sounds.       The world's a little to crowded now

|--0--0--0----------------------2----------------------------|
|--0--0--1----------------------3--{light strum}-------------|
|--1--1--0----------------------2----------------------------|
|--0--0--2--{light strums}0h2---0----------------------------|
|--2--2--3---------------------------------------------------|
|------------------------------------------------------------|

       And there's only one way out......

|------3----------------------3------------------------------|
|--------3---3------------------3---3------------------------|
|----------0----------------------0--------------------------|
|------------------------------------------------------------|
|----2-----------2h3--3p2---2-----------3--2--0--------------|
|--3----------------------3----------------------------------|


|--0----------------------0----0----0------------------------|
|--1----------------------1----1----0------------------------|
|--2 {light strumming}----2----2----1{light strumming}-------|
|--2----------------------2----2----0------------------------|
|--0----------------------0----0----2------------------------|
|------------------------------------------------------------|
 
    An elevator ride.            through the tunnel towards the light

|--0--0--0----------------------2----------------------------|
|--0--0--1----------------------3--{light strum}-------------|
|--1--1--0----------------------2----------------------------|
|--0--0--2--{light strums}0h2---0----------------------------|
|--2--2--3---------------------------------------------------|
|------------------------------------------------------------|

   And I'm noooooo    where bound.....

|------3----------------------3--------------------2---------|
|--------3---3------------------3---3--------------3---------|
|----------0----------------------0----------------2---------|
|--------------------------------------------------0---------|
|----2-----------2h3--3p2---2-----------3--2--0--------------|
|--3----------------------3----------------------------------|

                               Keep going up and down...         

|-------------3-----3------------3--------3~-----------------|
|-------------3-------3---3--------3---3--3~-----------------|
|-------------0---------0------------0----0~-----------------|
|-------------0---------------------------0~-----------------|
|--3--2--0----2---2------------2----------2~-----------------|
|-------------3-3------------3------------3~-----------------| 

   Up and down

[continue all that for the remainder of the song]


Newspaper, newspaper 
Can't take no more 
You're here every morning 
Waiting at my door 

I'm just trying to kiss you 
And you stab my eyes 
Make me blue forever 
like an island sky 

And I'm not pretending that it's all ok 
Just let me have my coffee before you take away the day 

Lazarus, Lazarus 
Why all the tears? 
Did your faithful chauffer 
just disappear? 

What a lonesome feeling 
to be waiting round 
Like some washed up actress 
in a tinsel town 

Before the record I'd come pick you up 
We'll head for the ocean 
Just say when you've had enough 

All the light and sound 
This little world's too fragile now 
And there's only one way out 

But if you let me slide 
I'll do my best to make things right 
And I'm nowhere bound 
Just going up and down 
Up and down 

Milk Thistle, milk Thistle 
Let me down slow 
Just help me go slow 
I've been hurrying on 

I was poised for greatness 
I was down and out 
I keep death at my heels 
like a bassett hound 

If I go to heaven I'll be bored as hell 
Like a crying baby at the bottom of a well  
            
Submit corrections


        Milk Thistle lessons Hard to play? Try these video lessons and learn fast Milk Thistle lessons
        
↑ Back to top | Tablatures and chords for acoustic guitar and electric guitar, ukulele, drums are parodies/interpretations of the original songs. You may use it for private study, scholarship, research or language learning purposes only