» » »

Conor Oberst And The Mystic Valley Band - Souled Out Tabs

Artists:  A B C D E F G H I J K L M N O P Q R S T U V W X Y Z # 

Souled Out Tabs

(ver. 1) Click to play this song!
Conor Oberst And The Mystic Valley Band
 Rating:
4.5/5 (8 votes)

 Souled Out lessons Tabs too difficult? Try these video lessons and learn fast
 
                

I know this is the second time of submiting
a tab for this, but I have worked out more
of the song, however the previous tab would
not let me change the type from Intro to
whole song, so I thought I would start a fresh :)

I have only tabbed out the parts for the lead guitar, if you want the chords then I 
the excellent chord tab which was uploaded by a user who I can only identify as unregistered.

So yeah, feedback/comments/corrections are welcome!


  Intro

e|-------------------------------------------------------------------------|
B|-------------------------------------------------------------------------|
G|-----7-7----7-9-9^11-^11-11v9-7------------------------------------------|
D|-7/9------9---------------------9-7-----7-7------------------------------|
A|------------------------------------7/9-----9-7-5~~-----5-----5~~-7-7/9--|
E|----------------------------------------------------5h7---5h7------------|


e|-------------------------------------------------------------------------|
B|-------------------------------------------------------------------------|
G|-------------------------------------------------------------------------|
D|--7----7-----------------------------------------------------------------|
A|----9----9-7~-5~~--------------------------------------------------------|
E|-------------------------------------------------------------------------|

  Verse 1 (x2)

e|------------------------------------------------------------------------|
B|----7~-----------7~------------7~---------------------------------------|
G|------7~-----------7~-------------7~------------------------------------|
D|------------------------------------------------------------------------|
A|--------------------------------------------9-9p7------------7-5--------|
E|--------------------------------------------------10-7-10p7-------------|

   Second Solo

e|------------------------------------------------------------------------|
B|------------------------------------------------------------------------|
G|------------------------------------------------------------------------|
D|----------7----7-9-7-------------------------7---7--9-7-----------------|
A|----5h7/9-----9------9-7-5-5~------5-7-5-7/9---9--------9-7-5--9-7/5----|
E|-------------------------------5h7--------------------------------------|

  Verse 2 (x1)

e|------------------------------------------------------------------------|
B|----7~-----------7~------------7~---------------------------------------|
G|------7~-----------7~-------------7~------------------------------------|
D|------------------------------------------------------------------------|
A|--------------------------------------------9-9p7------------7-5--------|
E|--------------------------------------------------10-7-10p7-------------|

  Chorus  (NOTE: There are lead parts which I am not fully sure about, if you can make 
to what I have done I would be greatful)


e|--------------------------------------------------------------|
B|--------------------------------------------------------------|
G|-------7-------------------7--------------------7-------------|
D|---5---7---7---7-9-7---5---7---7------------5---7---7--7-9-7--|
A|---5---5---7-----------5---5---7--9-9p7-5---5---5---7---------|
E|---3-------5-----------3-------5------------3-------5---------|

e|--------------------------------------------------------------|
B|--------------------------------------------------------------|
G|--------------------------------------------------------------|
D|---5---5---5/7--7--7--7---------------------------------------|
A|---5---5---5/7--7--7--7---------------------------------------|
E|---3---5---3/5--5--5--5---------------------------------------|

   Solo 3

e|------------------------------------------------------------|
B|------------------------------------------------------------|
G|------------------7-7---7---7-9-7-9-9-7-9-9^-9^-9^-9-7------|
D|-------7~----7-9------9---9----------------------------9--7-|
A|---7h9-----9------------------------------------------------|
E|------------------------------------------------------------|

e|-----------------------------------10-----------------------|
B|-------------------7--10--7-10--7------10--7----------------|
G|-----------7---7-9----------------------------9--7~---------|
D|-------7-9---9----------------------------------------------|
A|---7-9------------------------------------------------------|
E|------------------------------------------------------------|

    Verse 3

e|------------------------------------------------------------------------|
B|------------------------------------------------------------------------|
G|------------No Electric Here--------------------------------------------|
D|-------------Just Acoustic!---------------------------------------------|
A|--------------------------------------------9-9p7------------7-5--------|
E|--------------------------------------------------10-7-10p7-------------|

e|------------------------------------------------------------------------|
B|----7~-----------7~------------7~---------------------------------------|
G|------7~-----------7~-------------7~------------------------------------|
D|------------------------------------------------------------------------|
A|--------------------------------------------9-9p7------------7-5--------|
E|--------------------------------------------------10-7-10p7-------------|


I'm afraid thats all I have for now, but I will continue with this tab as soon as I work
the other solos :)

/  -  Slide
^  -  Bend
v  -  Release bend
h  -  Hammer on
p  -  Pull off
~  -  Let the note ring
            
Submit corrections


        Souled Out lessons Hard to play? Try these video lessons and learn fast Souled Out lessons
        
↑ Back to top | Tablatures and chords for acoustic guitar and electric guitar, ukulele, drums are parodies/interpretations of the original songs. You may use it for private study, scholarship, research or language learning purposes only