» » »

Conor Oberst And The Mystic Valley Band - Nyc-gone Gone Tabs

Artists:  A B C D E F G H I J K L M N O P Q R S T U V W X Y Z # 

Nyc-gone Gone Tabs

(ver. 2) Click to play this song!
Conor Oberst And The Mystic Valley Band
 Rating:
4.3/5 (6 votes)

 Nyc-gone Gone lessons Tabs too difficult? Try these video lessons and learn fast
 
                indie_lover

Offical Site: conoroberst.com

e|--------------------------------------------|
B|--------------------------------------------|
G|--------------------------------------------|
D|-9-9-9-9h11----9----------------------------|
A|------------11-11---11-11-11-11-9-7---7-----|
E|------------------------------------9---9-7-|

e|--------------------------------------------|
B|--------------------------------------------|
G|--------------------------------------------|
D|-9-9-9-9h11----9----------------------------|
A|------------11-11---11-11-11-11-9-7---7-7---|
E|------------------------------------9-------|


e|---------|
B|---------|
G|---------|  This is where its like, " Lay me down, Lay me down "
D|---------|  or " Way down low, Way down low "
A|---7-7---|
E|-9-------|


e|------------------------|
B|------------------------|
G|------------------------|
D|------------------------|  This is wher its like, " Where you going to gowith
A|--11-11-11-11-9-7---7-7-|  a heart that gone "
E|------------------9-----|


when whole band comes in towards the end, i found that if you strum this riff with the 
string (E) open the whole time, it gives it a really cool sound. it sounds a lot better.
thankyou, this is pretety right so yah.,

tabebd by ange stella
aka
indie_lover
            
Submit corrections


        Nyc-gone Gone lessons Hard to play? Try these video lessons and learn fast Nyc-gone Gone lessons
        
↑ Back to top | Tablatures and chords for acoustic guitar and electric guitar, ukulele, drums are parodies/interpretations of the original songs. You may use it for private study, scholarship, research or language learning purposes only