» » »

Conor Oberst And The Mystic Valley Band - Nyc-gone Gone Tabs

Artists:  A B C D E F G H I J K L M N O P Q R S T U V W X Y Z # 

Nyc-gone Gone Tabs

(ver. 1) Click to play this song!
Conor Oberst And The Mystic Valley Band
 Rating:
3.7/5 (6 votes)

 Nyc-gone Gone lessons Tabs too difficult? Try these video lessons and learn fast
 
                New Song, from Conor Oberst's new self titled album.
Very cool riff, and very easy.

Offical Site: conoroberst.com

e|------------------------------------|
B|------------------------------------|
G|------------------------------------|
D|--9-9-9h11-9-6-9--6666--------------|
A|------------------------9-7-4-7-4---|
E|----------------------------------7-|

e|------------------------------------|
B|------------------------------------|
G|------------------------------------|
D|--9-9-9h11-9-6-9--6666--------------|
A|------------------------9-7-4-7-7---|
E|------------------------------------|


e|---------|
B|---------|
G|---------|  This is where its like, " Lay me down, Lay me down "
D|---------|  or " Way down low, Way down low "
A|-4-7-7---|
E|---------|


e|-------------------|
B|-------------------|
G|-------------------|
D|--6666-------------|  This is wher its like, " Where you going to go with 
A|--------9-7-4-7-7--|  a heart that gone "
E|-------------------|


There you go, Enjoy.
            
Submit corrections


        Nyc-gone Gone lessons Hard to play? Try these video lessons and learn fast Nyc-gone Gone lessons
        
↑ Back to top | Tablatures and chords for acoustic guitar and electric guitar, ukulele, drums are parodies/interpretations of the original songs. You may use it for private study, scholarship, research or language learning purposes only