» » »

Coldplay - Sparks Bass

Artists:  A B C D E F G H I J K L M N O P Q R S T U V W X Y Z # 

Sparks Bass

(ver. 3) Click to play this song!
Coldplay
 Rating:
4/5 (4 votes)

 Sparks lessons Tabs too difficult? Try these video lessons and learn fast
 
                This is just a few minor corrections to the original tab.  Careful not to confuse the piano and bass notes.


Intro:

G|---------------------|
D|-3~------------------|  
A|----4h6p6------------|   
E|---------4--6--4-----|

Verse:

G|--------------------------------------------------------|
D|-----------------------------------6-6---6-6------------|
A|--4-6-1--4-6-1---6--6---8p4--6-8-4-----4-----6---6-8-4--|
E|---------------1----------------------------------------|

Chorus

G|--------------------------------------|
D|--------------------------------------|
A|--6-4-11-33-44-66-1----11-33-44-66-8--|
E|--------------------------------------|

Intro x4
Verse x1
Chorus x1
Intro x4 
Verse x1
Chorus x1
Intro x8

| /  slide up
| \  slide down
| h  hammer-on
| p  pull-off
| ~  vibrato
| +  harmonic
| x  Mute note
            
Submit corrections


        Sparks lessons Hard to play? Try these video lessons and learn fast Sparks lessons
        
↑ Back to top | Tablatures and chords for acoustic guitar and electric guitar, ukulele, drums are parodies/interpretations of the original songs. You may use it for private study, scholarship, research or language learning purposes only