» » »

Coldplay - Sparks Tabs

Artists:  A B C D E F G H I J K L M N O P Q R S T U V W X Y Z # 

Sparks Tabs

(ver. 1) Click to play this song!
Coldplay
 Rating:
4.3/5 (15 votes)

 Sparks lessons Tabs too difficult? Try these video lessons and learn fast
 
                [Intro]

   Em7         Em maj9     Em7         G9   
e|-----0-0-0-------0---0-------0---0-------0-0-0-----------------------------|
B|-0---0-0-0---0---0-0-0---0---0-0-0---0---0-0-0-----------------------------|
G|-0---0-0-0---0---0-0-0---0---0-0-0---0---0-0-0-----------------------------|
D|-2---2-2-2---4---4-4-4---5---5-5-5---7---7-7-7-----------------------------|
A|-2---2-2-2---6---6-6-6---7---7-7-7---8---8-8-8-----------------------------|
E|-0-----0-------------------------------------------------------------------|

   Db dim                Cmaj7
e|-----0---0-----0---0-------0---0-------------------------------------------|
B|-0---0-0-0-0---0-0-0---0---0-0-0-0----0------------------------------------|
G|-0---0-0-0-0---0-0-0---0---0-0-0-0--0-0-0----------------------------------|
D|-2---2-2-2-2---2-2-2---2---2-2-2-2--2-2-2-2--------------------------------|
A|-4---4-4-4-4---4-4-4---3---3-3-3-3--3-3-0-0--------------------------------|
E|---------------------------------------------------------------------------|


[Verse]

   Gmaj7                Em7                  Gmaj7                Em7
e|-----0-0-0----0---0-------0---0----0---0-------0-0-0----0---0-------0---0----0---0-|
B|-0---0-0-0-0--0-0-0---0---0-0-0-0--0-0-0---0---0-0-0-0--0-0-0---0---0-0-0-0--0-0-0-|
G|-0---0-0-0-0--0-0-0---0---0-0-0-0--0-0-0---0---0-0-0-0--0-0-0---0---0-0-0-0--0-0-0-|
D|-4---4-4-4-4--4-4-4---5---5-5-5-5--5-5-5---4---4-4-4-4--4-4-4---5---5-5-5-5--5-5-5-|
A|-5---5-5-5-5--5-5-5---7---7-7-7-7--7-7-7---5---5-5-5-5--5-5-5---7---7-7-7-7--7-7-7-|
E|-3-----3---3----3--------------------------3-----3---3----3------------------------|


   Gmaj7                Em7                  Gmaj7                Em7
e|-----0-0-0----0---0-------0---0----0---0-------0-0-0----0---0-------0---0----0---0-|
B|-0---0-0-0-0--0-0-0---0---0-0-0-0--0-0-0---0---0-0-0-0--0-0-0---0---0-0-0-0--0-0-0-|
G|-0---0-0-0-0--0-0-0---0---0-0-0-0--0-0-0---0---0-0-0-0--0-0-0---0---0-0-0-0--0-0-0-|
D|-4---4-4-4-4--4-4-4---5---5-5-5-5--5-5-5---4---4-4-4-4--4-4-4---5---5-5-5-5--5-5-5-|
A|-5---5-5-5-5--5-5-5---7---7-7-7-7--7-7-7---5---5-5-5-5--5-5-5---7---7-7-7-7--7-7-7-|
E|-3-----3---3----3--------------------------3-----3---3----3------------------------|

   Gmaj7                Em7                  Gmaj7                Em7
         Did I drive you away                       Well I know what you'll say You'll 
e|-----0-0-0----0---0-------0---0----0---0-------0-0-0----0---0-------0---0----0---0-|
B|-0---0-0-0-0--0-0-0---0---0-0-0-0--0-0-0---0---0-0-0-0--0-0-0---0---0-0-0-0--0-0-0-|
G|-0---0-0-0-0--0-0-0---0---0-0-0-0--0-0-0---0---0-0-0-0--0-0-0---0---0-0-0-0--0-0-0-|
D|-4---4-4-4-4--4-4-4---5---5-5-5-5--5-5-5---4---4-4-4-4--4-4-4---5---5-5-5-5--5-5-5-|
A|-5---5-5-5-5--5-5-5---7---7-7-7-7--7-7-7---5---5-5-5-5--5-5-5---7---7-7-7-7--7-7-7-|
E|-3-----3---3----3--------------------------3-----3---3----3------------------------|

   Am add9/11                                Gmaj7                G
say   "Ohhhhhh,                sing one you know"
e|-----0---0-0--0---0-------0---0-0--0---0-------0-0-0----0---0-------0-0-0----0---0-|
B|-0---0-0-0-0--0-0-0---0---0-0-0-0--0-0-0---0---0-0-0-0--0-0-0---0---0-0-0-0--0-0-0-|
G|-5---5-5-5-5--5-5-5---5---5-5-5-5--5-5-5---0---0-0-0-0--0-0-0---0---0-0-0-0--0-0-0-|
D|-7---7-7-7-7--7-7-7---7---7-7-7-7--7-7-7---4---4-4-4-4--4-4-4---5---5-5-5-5--5-5-5-|
A|-7---7-7-7-7--7-7-7---7---7-7-7-7--7-7-7---5---5-5-5-5--5-5-5---5---5-5-5-5--5-5-5-|
E|-5-----5---5----5-----5-----5---5----5-----3-----3---3----3-----3-----3---3----3---|

   Gmaj7                Em7                  Gmaj7                Em7
               But I promise you this,                  I'll always look out  for    
e|-----0-0-0----0---0-------0---0----0---0-------0-0-0----0---0-------0---0----0---0-|
B|-0---0-0-0-0--0-0-0---0---0-0-0-0--0-0-0---0---0-0-0-0--0-0-0---0---0-0-0-0--0-0-0-|
G|-0---0-0-0-0--0-0-0---0---0-0-0-0--0-0-0---0---0-0-0-0--0-0-0---0---0-0-0-0--0-0-0-|
D|-4---4-4-4-4--4-4-4---5---5-5-5-5--5-5-5---4---4-4-4-4--4-4-4---5---5-5-5-5--5-5-5-|
A|-5---5-5-5-5--5-5-5---7---7-7-7-7--7-7-7---5---5-5-5-5--5-5-5---7---7-7-7-7--7-7-7-|
E|-3-----3---3----3--------------------------3-----3---3----3------------------------|

   Am add9/11                                Gmaj7                G
   you                           that's what I'll do                            Say  
e|-----0---0-0--0---0-------0---0-0--0---0-------0-0-0----0---0-------0-0-0----0---0-|
B|-0---0-0-0-0--0-0-0---0---0-0-0-0--0-0-0---0---0-0-0-0--0-0-0---0---0-0-0-0--0-0-0-|
G|-5---5-5-5-5--5-5-5---5---5-5-5-5--5-5-5---0---0-0-0-0--0-0-0---0---0-0-0-0--0-0-0-|
D|-7---7-7-7-7--7-7-7---7---7-7-7-7--7-7-7---4---4-4-4-4--4-4-4---5---5-5-5-5--5-5-5-|
A|-7---7-7-7-7--7-7-7---7---7-7-7-7--7-7-7---5---5-5-5-5--5-5-5---5---5-5-5-5--5-5-5-|
E|-5-----5---5----5-----5-----5---5----5-----3-----3---3----3-----3-----3---3----3---|

e|---------------------------------------------------------------------------|
B|-----6--------------------------6------------------------------------------|
G|-------6--------------------------6----------------------------------------|
D|-6/8--------------------------------8------6-------------------------------|
A|---------------------------------------------------------------------------|
E|---------------------------------------------------------------------------|

[Chorus]

   Em7         Em maj9     Em7         G9
   I
e|-----0-0-0-------0---0-------0---0-------0---0-----------------------------|
B|-0---0-0-0---0---0-0-0---0---0-0-0---0---0-0-0-----------------------------|
G|-0---0-0-0---0---0-0-0---0---0-0-0---0---0-0-0-----------------------------|
D|-2---2-2-2---4---4-4-4---5---5-5-5---7---7-7-7-----------------------------|
A|-2---2-2-2---6---6-6-6---7---7-7-7---8---8-8-8-----------------------------|
E|-0-----0-------------------------------------------------------------------|
 
   Db dim                Cmaj7
                                     I  say                            
e|-----0---0-----0---0-------0---0----0---0----------------------------------|
B|-0---0-0-0-0---0-0-0---0---0-0-0-0--0-0-0----------------------------------|
G|-0---0-0-0-0---0-0-0---0---0-0-0-0--0-0-0----------------------------------|
D|-2---2-2-2-2---2-2-2---2---2-2-2-2--2-2-2----------------------------------|
A|-4---4-4-4-4---4-4-4---3---3-3-3-3--3-3-3----------------------------------|
E|---------------------------------------------------------------------------|

   Em7         Em maj9     Em7         G9
   I
e|-----0-0-0-------0---0-------0---0-------0---0-----------------------------|
B|-0---0-0-0---0---0-0-0---0---0-0-0---0---0-0-0-----------------------------|
G|-0---0-0-0---0---0-0-0---0---0-0-0---0---0-0-0-----------------------------|
D|-2---2-2-2---4---4-4-4---5---5-5-5---7---7-7-7-----------------------------|
A|-2---2-2-2---6---6-6-6---7---7-7-7---8---8-8-8-----------------------------|
E|-0-----0-------------------------------------------------------------------|

e|---------------------------------------------------------------------------|
B|-------------1-----------2-----------4-------------------------------------|
G|---------------------------------------------------------------------------|
D|---------------------------------------------------------------------------|
A|---------------------------------------------------------------------------|
E|---------------------------------------------------------------------------|
 
   Db dim                Cmaj7                                                               
e|-----0---0-----0---0-------0---0---------0---------------------------------|
B|-0---0-0-0-0---0-0-0---0---0-0-0-0-----0-0---------------------------------|
G|-0---0-0-0-0---0-0-0---0---0-0-0-0--0--0-0---------------------------------|
D|-2---2-2-2-2---2-2-2---2---2-2-2-2--2--2-2-2-------------------------------|
A|-4---4-4-4-4---4-4-4---3---3-3-3-3--3--3-0-0-------------------------------|
E|---------------------------------------------------------------------------|

e|-1-------------------------------------------------------------------------|
B|---------------------------------------------------------------------------|
G|---------------------------------------------------------------------------|
D|---------------------------------------------------------------------------|
A|---------------------------------------------------------------------------|
E|---------------------------------------------------------------------------|

[Verse]

   Gmaj7                Em7                  Gmaj7                Em7
e|-----0-0-0----0---0-------0---0----0---0-------0-0-0----0---0-------0---0----0---0-|
B|-0---0-0-0-0--0-0-0---0---0-0-0-0--0-0-0---0---0-0-0-0--0-0-0---0---0-0-0-0--0-0-0-|
G|-0---0-0-0-0--0-0-0---0---0-0-0-0--0-0-0---0---0-0-0-0--0-0-0---0---0-0-0-0--0-0-0-|
D|-4---4-4-4-4--4-4-4---5---5-5-5-5--5-5-5---4---4-4-4-4--4-4-4---5---5-5-5-5--5-5-5-|
A|-5---5-5-5-5--5-5-5---7---7-7-7-7--7-7-7---5---5-5-5-5--5-5-5---7---7-7-7-7--7-7-7-|
E|-3-----3---3----3--------------------------3-----3---3----3------------------------|

   Gmaj7                Em7                  Gmaj7                Em7
e|-----0-0-0----0---0-------0---0----0---0-------0-0-0----0---0-------0---0----0---0-|
B|-0---0-0-0-0--0-0-0---0---0-0-0-0--0-0-0---0---0-0-0-0--0-0-0---0---0-0-0-0--0-0-0-|
G|-0---0-0-0-0--0-0-0---0---0-0-0-0--0-0-0---0---0-0-0-0--0-0-0---0---0-0-0-0--0-0-0-|
D|-4---4-4-4-4--4-4-4---5---5-5-5-5--5-5-5---4---4-4-4-4--4-4-4---5---5-5-5-5--5-5-5-|
A|-5---5-5-5-5--5-5-5---7---7-7-7-7--7-7-7---5---5-5-5-5--5-5-5---7---7-7-7-7--7-7-7-|
E|-3-----3---3----3--------------------------3-----3---3----3------------------------|

   Gmaj7                Em7                  Gmaj7                Em7
              My heart is yours                        It's you that I hold  on
e|-----0-0-0----0---0-------0---0----0---0-------0-0-0----0---0-------0---0----0---0-|
B|-0---0-0-0-0--0-0-0---0---0-0-0-0--0-0-0---0---0-0-0-0--0-0-0---0---0-0-0-0--0-0-0-|
G|-0---0-0-0-0--0-0-0---0---0-0-0-0--0-0-0---0---0-0-0-0--0-0-0---0---0-0-0-0--0-0-0-|
D|-4---4-4-4-4--4-4-4---5---5-5-5-5--5-5-5---4---4-4-4-4--4-4-4---5---5-5-5-5--5-5-5-|
A|-5---5-5-5-5--5-5-5---7---7-7-7-7--7-7-7---5---5-5-5-5--5-5-5---7---7-7-7-7--7-7-7-|
E|-3-----3---3----3--------------------------3-----3---3----3------------------------|

   Am add9/11                                Gmaj7                G
   to                              That's what I do 
e|-----0---0-0--0---0-------0---0-0--0---0-------0-0-0----0---0-------0-0-0----0---0-|
B|-0---0-0-0-0--0-0-0---0---0-0-0-0--0-0-0---0---0-0-0-0--0-0-0---0---0-0-0-0--0-0-0-|
G|-5---5-5-5-5--5-5-5---5---5-5-5-5--5-5-5---0---0-0-0-0--0-0-0---0---0-0-0-0--0-0-0-|
D|-7---7-7-7-7--7-7-7---7---7-7-7-7--7-7-7---4---4-4-4-4--4-4-4---5---5-5-5-5--5-5-5-|
A|-7---7-7-7-7--7-7-7---7---7-7-7-7--7-7-7---5---5-5-5-5--5-5-5---5---5-5-5-5--5-5-5-|
E|-5-----5---5----5-----5-----5---5----5-----3-----3---3----3-----3-----3---3----3---|

e|---------------------------------------------------------------------------|
B|-----6--------------------------6------------------------------------------|
G|-------6--------------------------6----------------------------------------|
D|-6/8--------------------------------8------6-------------------------------|
A|---------------------------------------------------------------------------|
E|---------------------------------------------------------------------------|

   Gmaj7                Em7                  Gmaj7                Em7
              And I know I was wrong                    But I won't let you down
e|-----0-0-0----0---0-------0---0----0---0-------0-0-0----0---0-------0---0----0---0-|
B|-0---0-0-0-0--0-0-0---0---0-0-0-0--0-0-0---0---0-0-0-0--0-0-0---0---0-0-0-0--0-0-0-|
G|-0---0-0-0-0--0-0-0---0---0-0-0-0--0-0-0---0---0-0-0-0--0-0-0---0---0-0-0-0--0-0-0-|
D|-4---4-4-4-4--4-4-4---5---5-5-5-5--5-5-5---4---4-4-4-4--4-4-4---5---5-5-5-5--5-5-5-|
A|-5---5-5-5-5--5-5-5---7---7-7-7-7--7-7-7---5---5-5-5-5--5-5-5---7---7-7-7-7--7-7-7-|
E|-3-----3---3----3--------------------------3-----3---3----3------------------------|

e|-----------------------------------------------------------------------------------|
B|-9--------------------11-------------------10-------------------9---------6--------|
G|-10-------------------10-------------------10-------------------10--------6--------|
D|-----------------------------------------------------------------------------------|
A|-----------------------------------------------------------------------------------|
E|-----------------------------------------------------------------------------------|

   Am add9/11                                Gmaj7                G  
   Oh yeah, I will, yeah I will, yes I will                                   I say
e|-----0---0-0--0---0-------0---0-0--0---0-------0-0-0----0---0-------0-0-0----0---0-|
B|-0---0-0-0-0--0-0-0---0---0-0-0-0--0-0-0---0---0-0-0-0--0-0-0---0---0-0-0-0--0-0-0-|
G|-5---5-5-5-5--5-5-5---5---5-5-5-5--5-5-5---0---0-0-0-0--0-0-0---0---0-0-0-0--0-0-0-|
D|-7---7-7-7-7--7-7-7---7---7-7-7-7--7-7-7---4---4-4-4-4--4-4-4---5---5-5-5-5--5-5-5-|
A|-7---7-7-7-7--7-7-7---7---7-7-7-7--7-7-7---5---5-5-5-5--5-5-5---5---5-5-5-5--5-5-5-|
E|-5-----5---5----5-----5-----5---5----5-----3-----3---3----3-----3-----3---3----3---|

e|---------------------------------------------------------------------------|
B|-7------------------------------7----------6-------------------------------|
G|-8------------------------------8----------6-------------------------------|
D|---------------------------------------------------------------------------|
A|---------------------------------------------------------------------------|
E|---------------------------------------------------------------------------|

[Chorus]

  Em7         Em maj9     Em7         G9
  I
e|-----0-0-0-------0---0-------0---0-------0---0-----------------------------|
B|-0---0-0-0---0---0-0-0---0---0-0-0---0---0-0-0-----------------------------|
G|-0---0-0-0---0---0-0-0---0---0-0-0---0---0-0-0-----------------------------|
D|-2---2-2-2---4---4-4-4---5---5-5-5---7---7-7-7-----------------------------|
A|-2---2-2-2---6---6-6-6---7---7-7-7---8---8-8-8-----------------------------|
E|-0-----0-------------------------------------------------------------------|

e|---------------------------------------------------------------------------|
B|-------------1-----------2-----------4-------------------------------------|
G|-3-------------------------------------------------------------------------|
D|---------------------------------------------------------------------------|
A|---------------------------------------------------------------------------|
E|---------------------------------------------------------------------------|
 
   Db dim                Cmaj7  
                                     I  cry                            
e|-----0---0-----0---0-------0---0-------0---0-------------------------------|
B|-0---0-0-0-0---0-0-0---0---0-0-0-0--0--0-0-0-------------------------------|
G|-0---0-0-0-0---0-0-0---0---0-0-0-0--0--0-0-0-------------------------------|
D|-2---2-2-2-2---2-2-2---2---2-2-2-2--2--2-2-2-------------------------------|
A|-4---4-4-4-4---4-4-4---3---3-3-3-3--3--3-3-3-------------------------------|
E|---------------------------------------------------------------------------|

e|---------------------------------------------------------------------------|
B|-2-------------------------------------------------------------------------|
G|-3-------------------------------------------------------------------------|
D|---------------------------------------------------------------------------|
A|---------------------------------------------------------------------------|
E|---------------------------------------------------------------------------|

   Em7         Em maj9     Em7         G9
e|-----0-0-0-------0---0-------0---0-------0---0-----------------------------|
B|-0---0-0-0---0---0-0-0---0---0-0-0---0---0-0-0-----------------------------|
G|-0---0-0-0---0---0-0-0---0---0-0-0---0---0-0-0-----------------------------|
D|-2---2-2-2---4---4-4-4---5---5-5-5---7---7-7-7-----------------------------|
A|-2---2-2-2---6---6-6-6---7---7-7-7---8---8-8-8-----------------------------|
E|-0-----0-------------------------------------------------------------------|

e|---------------------------------------------------------------------------|
B|-------------1-----1-----2-----------4-------------------------------------|
G|-3-----3-------------------------------------------------------------------|
D|----3-----------3----------------------------------------------------------|
A|---------------------------------------------------------------------------|
E|---------------------------------------------------------------------------|
 
   Db dim                Cmaj7  
                                     I  saw                         
e|-----0---0-----0---0-------0---0-----0---0---------------------------------|
B|-0---0-0-0-0---0-0-0---0---0-0-0-0---0-0-0---------------------------------|
G|-0---0-0-0-0---0-0-0---0---0-0-0-0---0-0-0---------------------------------|
D|-2---2-2-2-2---2-2-2---2---2-2-2-2---2-2-2---------------------------------|
A|-4---4-4-4-4---4-4-4---3---3-3-3-3---3-3-3---------------------------------|
E|---------------------------------------------------------------------------|

e|-1--------------------------------------------------------------------------|
B|---------------------------------------------------------------------------|
G|---------------------------------------------------------------------------|
D|---------------------------------------------------------------------------|
A|---------------------------------------------------------------------------|
E|---------------------------------------------------------------------------|

[Verse]

   Gmaj7                Em7                  Gmaj7                Em7
   sparks                          Yeah I saw sparks,                        and I saw
e|-----0-0-0----0---0-------0---0----0---0-------0-0-0----0---0-------0---0----0---0-|
B|-0---0-0-0-0--0-0-0---0---0-0-0-0--0-0-0---0---0-0-0-0--0-0-0---0---0-0-0-0--0-0-0-|
G|-0---0-0-0-0--0-0-0---0---0-0-0-0--0-0-0---0---0-0-0-0--0-0-0---0---0-0-0-0--0-0-0-|
D|-4---4-4-4-4--4-4-4---5---5-5-5-5--5-5-5---4---4-4-4-4--4-4-4---5---5-5-5-5--5-5-5-|
A|-5---5-5-5-5--5-5-5---7---7-7-7-7--7-7-7---5---5-5-5-5--5-5-5---7---7-7-7-7--7-7-7-|
E|-3-----3---3----3--------------------------3-----3---3----3------------------------|

   Gmaj7                Em7                  Gmaj7                Em7
  sparks                          Yeah I saw sparks,                        see me now
e|-----0-0-0----0---0-------0---0----0---0-------0-0-0----0---0-------0---0----0---0-|
B|-0---0-0-0-0--0-0-0---0---0-0-0-0--0-0-0---0---0-0-0-0--0-0-0---0---0-0-0-0--0-0-0-|
G|-0---0-0-0-0--0-0-0---0---0-0-0-0--0-0-0---0---0-0-0-0--0-0-0---0---0-0-0-0--0-0-0-|
D|-4---4-4-4-4--4-4-4---5---5-5-5-5--5-5-5---4---4-4-4-4--4-4-4---5---5-5-5-5--5-5-5-|
A|-5---5-5-5-5--5-5-5---7---7-7-7-7--7-7-7---5---5-5-5-5--5-5-5---7---7-7-7-7--7-7-7-|
E|-3-----3---3----3--------------------------3-----3---3----3------------------------|

[Outro]

   Gmaj7                Em7                  Gmaj7                Em7
              La la la la          la oh                la la la la          la oh
e|-----0-0-0----0---0-------0---0----0---0-------0-0-0----0---0-------0---0----0---0-|
B|-0---0-0-0-0--0-0-0---0---0-0-0-0--0-0-0---0---0-0-0-0--0-0-0---0---0-0-0-0--0-0-0-|
G|-0---0-0-0-0--0-0-0---0---0-0-0-0--0-0-0---0---0-0-0-0--0-0-0---0---0-0-0-0--0-0-0-|
D|-4---4-4-4-4--4-4-4---5---5-5-5-5--5-5-5---4---4-4-4-4--4-4-4---5---5-5-5-5--5-5-5-|
A|-5---5-5-5-5--5-5-5---7---7-7-7-7--7-7-7---5---5-5-5-5--5-5-5---7---7-7-7-7--7-7-7-|
E|-3-----3---3----3--------------------------3-----3---3----3------------------------|

e|-----4---------4-------------------------------4---------4-------------------------|
B|-----------------------------------------------------------------------------------|
G|-5h6-------5h6--------1h3-1-----1h3-1------5h6-------5h6--------5p3-------5p3------|
D|--------------------------------------------------------------------3---------3----|
A|-----------------------------------------------------------------------------------|
E|-----------------------------------------------------------------------------------|

   Gmaj7                Em7                  Gmaj7                Em7
              La la la la          la oh                la la la la          la oh
e|-----0-0-0----0---0-------0---0----0---0-------0-0-0----0---0-------0---0----0---0-|
B|-0---0-0-0-0--0-0-0---0---0-0-0-0--0-0-0---0---0-0-0-0--0-0-0---0---0-0-0-0--0-0-0-|
G|-0---0-0-0-0--0-0-0---0---0-0-0-0--0-0-0---0---0-0-0-0--0-0-0---0---0-0-0-0--0-0-0-|
D|-4---4-4-4-4--4-4-4---5---5-5-5-5--5-5-5---4---4-4-4-4--4-4-4---5---5-5-5-5--5-5-5-|
A|-5---5-5-5-5--5-5-5---7---7-7-7-7--7-7-7---5---5-5-5-5--5-5-5---7---7-7-7-7--7-7-7-|
E|-3-----3---3----3--------------------------3-----3---3----3------------------------|

e|-----4---------4-------------------------------4---------4-------------------------|
B|-----------------------------------------------------------------------------------|
G|-5h6-------5h6--------1h3-1-----1h3-1------5h6-------5h6--------5p3----------------|
D|--------------------------------------------------------------------3-----1--------|
A|-----------------------------------------------------------------------------4-----|
E|-----------------------------------------------------------------------------------|

            
Submit corrections


        Sparks lessons Hard to play? Try these video lessons and learn fast Sparks lessons
        
↑ Back to top | Tablatures and chords for acoustic guitar and electric guitar, ukulele, drums are parodies/interpretations of the original songs. You may use it for private study, scholarship, research or language learning purposes only