Home » C » Coldplay »

Coldplay - Hardest Bass

Artists:  A B C D E F G H I J K L M N O P Q R S T U V W X Y Z # 

Hardest Bass

(ver. 2) Click to play this song!
Coldplay
(Part)
INTRO

  REST 1/2
  MEASURE*
G|--------|-----------|-----------|-----------|-----------|
D|--------|-----------|-----------|-----------|-----------|
A|--------|-6--6-6--6-|-5--5-5--5-|-----------|-----------|
E|--------|-----------|-----------|-8--8-8--8-|-8--8-8--8-|

G|-----------|-----------|-----------|-----------|
D|-----------|-----------|-----------|-----------|
A|-6--6-6--6-|-6--6-6--6-|-8--8-8--8-|-8--8-8--8-|
E|-----------|-----------|-----------|-----------|

*Depending on the speakers, sometimes it sounds like he plays:

G|---------|
D|---------|
A|-------5-|
E|-8-6-8---|  during the very beginning.


VERSE

G|--------------|-----------|-----------|-----------|
D|--------------|-----------|-----------|-----------|
A|-10--10-10~-5-|-6--6-6~-5-|-----------|-5--5-5~-8-|
E|--------------|-----------|-6--6-6~-8-|-----------| x4

CHORUS

G|-----------|-----------|-----------|-----------|
D|-----------|-----------|-----------|-----------|
A|-6--6-6--6-|-6--6-6--6-|-----------|-----------|
E|-----------|-----------|-6--6-6--6-|-8--8-8--8-| x3

G|-----------|-----------|-----------|-----------|
D|-----------|-----------|-----------|-----------|
A|-6~---5~---|-----------|-----------|-----------|
E|-----------|-8~---6~---|-8--8-8--8-|-8--8-8--8-|

VERSE X 6

CHORUS X 1, THEN PLAY THIS:

G|-----------|-----------|-----------|-----------|
D|-----------|-----------|-----------|-----------|
A|-6~---5~---|-----------|-----------|-----------|
E|-----------|-8~---6~---|-8~~~~-----|-----------|

OUTRO

G|-----------|-----------|-----------|-----------|
D|-----------|-----------|-----------|-----------|
A|-6--6-6--6-|-5--5-5--5-|-----------|-----------|
E|-----------|-----------|-8--8-8--8-|-8--8-8--8-| x3


G|-----------|-----------|-----------|-----------|
D|-----------|-----------|-----------|-----------|
A|-6--6-6--6-|-6--6-6--6-|-8--8-8--8-|-8--8-8--8-|
E|-----------|-----------|-----------|-----------|


G|-----------|-----------|-----------|-----------|
D|-----------|-----------|-----------|-----------|
A|-6--6-6--6-|-5--5-5--5-|-----------|-----------|
E|-----------|-----------|-8--8-8--8-|-8--8-8--8-| x3


G|-----------|-----------|-----------|-----------|
D|-----------|-----------|-----------|-----------|
A|-6--6-6--6-|-6--6-6--6-|-8--8-8--8-|-8--8-8--8-|
E|-----------|-----------|-----------|-----------| x2


FADE OUT

G|-----------|-----------|-----------|-----------|
D|-----------|-----------|-----------|-----------|
A|-6--6-6--6-|-5--5-5--5-|-----------|-----------|
E|-----------|-----------|-8--8-8--8-|-8--8-8--8-| x4
            
Submit corrections

↑ Back to top | Tablatures and chords for acoustic guitar and electric guitar, ukulele, drums are parodies/interpretations of the original songs. You may use it for private study, scholarship, research or language learning purposes only