Home » C » Coldplay »

Coldplay - Hardest Bass

Artists:  A B C D E F G H I J K L M N O P Q R S T U V W X Y Z # 

Hardest Bass

(ver. 1) Click to play this song!
Coldplay
(Part)
  This is my 1st tab and even tough i'm pretty sure it's not 100% correct, it's better 
all the others i've seen. Enjoy

Intro
| --------------------------------------------------------------------------|
| --------0-1-1-1-1-1-1-1-0-------------------------------0-----------------|
| --3-1-3---------------------------------1-3-3-3-3-3-3-3---3-3-3-3-3-3-3-3-|
| --------------------------3-3-3-3-3-3-3-----------------------------------|

Intro 2
| --------------------------------------------------------------------------|
| --------0-1-1-1-1-1-1-1-1-1-1-1-1-1-1-1-0-3-3-3-3-3-3-3-3-3-3-3-3-3-3-3-3-|
| --3-1-3-------------------------------------------------------------------|
| --------------------------------------------------------------------------|

Verse
| -------------------------------------------------------|
| --5--5-5-5-5-0-1--1-1-1-1-0-------------------------3--|
| ----------------------------1--1-1-1-1-3-5--5-5-5-5----|
| -------------------------------------------------------|

Chorus
| ---------------------------------------------------------------------|
| --1-1-1-1-1-1-1-1-1-1-1-1-1-1-1-1-----------------0-3-3-3-3-3-3-3-3--|
| ----------------------------------1-1-1-1-1-1-1----------------------|
| ---------------------------------------------------------------------|

Post-Chorus
| ---------------------------------------|
| --5--5-3--3-1--1-0--0------------------|
| ----------------------3-3-0-3-3-0-3-3--|
| ---------------------------------------|

Outro
| ------------------------------------|
| --1-1-1-1-1-1-1-1--3-3-3-3-3-3-3-3--|
| ------------------------------------|
| ------------------------------------|

Order
Intro 1
Intro 2
Verse (4x)
Chorus (4x)
Post-Chorus
Verse (6x)
Chorus (4x)
Post-Chorus (2x)
Intro 1 (3x)
Intro 2
Intro 1 (3x)
Intro 2
Outro
Intro 1 until end
            
Submit corrections

↑ Back to top | Tablatures and chords for acoustic guitar and electric guitar, ukulele, drums are parodies/interpretations of the original songs. You may use it for private study, scholarship, research or language learning purposes only