» » »

Coldplay - Glass Of Water Bass

Artists:  A B C D E F G H I J K L M N O P Q R S T U V W X Y Z # 

Glass Of Water Bass

(ver. 1) Click to play this song!
Coldplay
 Rating:
4/5 (4 votes)


 Glass Of Water lessons Tabs too difficult? Try these video lessons and learn fast
 
                -----------------------------------------------------------------------------
                             GLASS OF WATER - Coldplay
-----------------------------------------------------------------------------

Tuning: Drop D

Bass comes in at 0:37
VERSE
G|---------------------------------|
D|--------5------------------------|
A|------------7----------------7---|
D|0---------------0----------------|x4

CHORUS (hard to keep rhythm here, it's in 7/4)
G|---------------------------------------------------|
D|---------------------------------------------------|
A|------------------------2--2--2-2-2-2--10--10--10--|
D|0--0--0-0-0-0--4--4--4-----------------------------|x7

G|--------------------------------------------------------------------|
D|---------------------------------------------------------------/12--|
A|-10--10--10-10-10-10-----------10--10--10-10-10-10------------------|
D|----------------------2--2--2----------------------7---7---7--------|

VERSE 2
G|----------------------------------------------------------------|
D|----------------------------------------------------------------|
A|----------------------------------------------------------------|
D|0-----------2---0---------------0-----------2---0---------------|x2

CHORUS (hard to keep rhythm here, it's in 7/4)
G|---------------------------------------------------|
D|---------------------------------------------------|
A|------------------------2--2--2-2-2-2--10--10--10--|
D|0--0--0-0-0-0--4--4--4-----------------------------|x7

G|--------------------------------------------------------------------|
D|--------------------------------------------------------------------|
A|-10--10--10-10-10-10-----------10--10--10-10-10-10------------------|
D|----------------------2--2--2----------------------7---7---7--------|

BRIDGE
G|--------------------------------------------------------------------------|
D|--------------------------------------------------------------------------|
A|-------------------------------------2--2--2--2---------------------------|
D|-5--5--5--5--5--5--5--5--4--4--4--4--------------5--5--5--5--4--4--4--4---|

G|--------------------------------------------------------------------------|
D|--------------------------------------------------------------------------|
A|-2--2--2--2--------------------------0--0--0--0--0--0--0--0---------------|
D|-------------5--5--5--5--2--2--2--2---------------------------------------|

CHORUS (hard to keep rhythm here, it's in 7/4)
G|---------------------------------------------------|
D|---------------------------------------------------|
A|------------------------2--2--2-2-2-2--10--10--10--|
D|0--0--0-0-0-0--4--4--4-----------------------------|x4

G|----------|
D|----------|
A|----------|
D|-0--------|

Last bit has no bass

| /  slide up
| \  slide down
| h  hammer-on
| p  pull-off
| ~  vibrato
| +  harmonic
| x  Mute note
==================================================================
            
Submit corrections



        Glass Of Water lessons Hard to play? Try these video lessons and learn fast Glass Of Water lessons
        
↑ Back to top | Tablatures and chords for acoustic guitar and electric guitar, ukulele, drums are parodies/interpretations of the original songs. You may use it for private study, scholarship, research or language learning purposes only