» » »

Coldplay - Glass Of Water Tabs

Artists:  A B C D E F G H I J K L M N O P Q R S T U V W X Y Z # 

Glass Of Water Tabs

(ver. 2) Click to play this song!
Coldplay
 Rating:
4.3/5 (22 votes)

 Glass Of Water lessons Tabs too difficult? Try these video lessons and learn fast
 
                Tuning: DADFAD

INTRO:
D|----------------------------------------------11----11----11----11--------|
A|---12-----12---12---12---12---12---12---12---(12)--(12)--(12)--(12)-------|
F|-14/13----13---13---13---13---11---11---11--------------------------------| X8
D|--------------------------------------------------------------------------|
A|--------------------------------------------------------------------------|
D|--------------------------------------------------------------------------|

D|--------------------------------------------------------------------------------------|
A|-----10---10---10---10---10--10--10--10---10---10----12----12----12----12----12-------|
F|------9----9----9----9----9---9---9---9----9----9----11----11----11----11----11-------|
D|--------------------------------------------------------------------------------------|
A|--------------------------------------------------------------------------------------|
D|--------------------------------------------------------------------------------------|

CHORUS:
D|---------------------------------------------------------------------------|
A|---------------------------------------------------------------------------|
F|---------------------------------------------------------------------------|
D|--0--0---0--0--0--0----4--4--4--4/9--9--9--9--9--9--12--12--12-------------|
A|--0--0---0--0--0--0----4--4--4--4/9--9--9--9--9--9--12--12--12-------------|
D|--0--0---0--0--0--0----4--4--4--4/9--9--9--9--9--9--12--12--12-------------|
                                                                                X3
D|---------------------------------------------------------------------------|
A|---------------------------------------------------------------------------|
F|---------------------------------------------------------------------------|
D|--0--0---0--0--0--0----4--4--4--4/9--9--9--9--9--9--5--5--5----------------|
A|--0--0---0--0--0--0----4--4--4--4/9--9--9--9--9--9--5--5--5----------------|
D|--0--0---0--0--0--0----4--4--4--4/9--9--9--9--9--9--5--5--5----------------|

D|-------------------------------------------------------------------------------------|
A|--(5)--(5)--(5)-(5)-(5)-(5)----------------------------------------------------------|
F|--(5)--(5)--(5)-(5)-(5)-(5)----------------------------------------------------------|
D|---5----5----5---5---5---5---14--14--14----------------------------------------------|
A|---5----5----5---5---5---5---14--14--14----------------------------------------------|
D|---5----5----5---5---5---5---14--14--14----------------------------------------------|


D|-------------------------------------------------------------------------------------|
A|--(5)--(5)--(5)-(5)-(5)-(5)----------------------------------------------------------|
F|--(5)--(5)--(5)-(5)-(5)-(5)----------------------------------------------------------|
D|---5----5----5---5---5---5/14-----14-----14------------------------------------------|
A|---5----5----5---5---5---5/14-----14-----14------------------------------------------|
D|---5----5----5---5---5---5/14-----14-----14------------------------------------------|

INTRO (AGAIN)
CHORUS (AGAIN)

IN THE PIANO'S SOLO JONNY BUCKLAND PLAY THAT:
D|---------------------------------------------------------------------------|
A|---(5)---------------------------------------------------------------------|
F|---(4)---------------------------------------------------------------------| X4
D|---------------------------------------------------------------------------|
A|---------------------------------------------------------------------------|
D|---------------------------------------------------------------------------|
            
Submit corrections


        Glass Of Water lessons Hard to play? Try these video lessons and learn fast Glass Of Water lessons
        
↑ Back to top | Tablatures and chords for acoustic guitar and electric guitar, ukulele, drums are parodies/interpretations of the original songs. You may use it for private study, scholarship, research or language learning purposes only