» » »

Coldplay - Glass Of Water Tabs

Artists:  A B C D E F G H I J K L M N O P Q R S T U V W X Y Z # 

Glass Of Water Tabs

(ver. 3) Click to play this song!
Coldplay
 Rating:
4.3/5 (13 votes)

 Glass Of Water lessons Tabs too difficult? Try these video lessons and learn fast
 
                [Verse]     
e|--------------14--------14----------12--------9----------------------------|     
B|--10----------10------10---------10--------10------------------------------|     
G|--11b12b11----------11-------9-----------9---------------------------------|  
D|---------------------------------------------------------------------------|
A|---------------------------------------------------------------------------|
D|---------------------------------------------------------------------------|

e|---------15----------15-----------15----------15---------------------------|
B|------10----10----10----10----10-----10----10----10------------------------|
G|---12----------12----------12-----------12---------------------------------|.
D|--------------------------------------------------------7--7--7--7--7-7----|. 
A|--------------------------------------------------------7--7--7--7--7-7----|
D|--------------------------------------------------------7--7--7--7--7-7----|

[Chorus/Instrumental]
e|---------------------------------------------------------------------------|
B|---------------------------------------------------------------------------|
G|----------------------------------4--4--4-4-4-4---12--12--12---------------| 7x
D|--0--0--0-0-0-0---4---4---4--(0)--4--4--4-4-4-4---12--12--12---------------|
A|--0--0--0-0-0-0---4---4---4--(0)--2--2--2-2-2-2---10--10--10---------------|
D|--0--0--0-0-0-0---4---4---4--(0)-------------------------------------------|

e|---------------------------------------------------------------------------|
B|---------------------------------------------------------------------------|
G|---------------------------------------------------------------------------|
D|-----5--5--5-5-5-5---2---2---2--(2)--5--5--5-5-5-5---7---7---7-------------|
A|-----5--5--5-5-5-5---2---2---2--(2)--5--5--5-5-5-5---7---7---7-------------|
D|-----5--5--5-5-5-5---2---2---2--(2)--5--5--5-5-5-5---7---7---7-------------|            
Submit corrections


        Glass Of Water lessons Hard to play? Try these video lessons and learn fast Glass Of Water lessons
        
↑ Back to top | Tablatures and chords for acoustic guitar and electric guitar, ukulele, drums are parodies/interpretations of the original songs. You may use it for private study, scholarship, research or language learning purposes only