Home » C » Coldplay »

Coldplay - Fix You Bass

Artists:  A B C D E F G H I J K L M N O P Q R S T U V W X Y Z # 

Fix You Bass

(ver. 1) Click to play this song!
Coldplay
 Rating:
4/5 (5 votes)
                -------------------------------------------------------------------------------
			     Fix You- Coldplay
-------------------------------------------------------------------------------


The other tabs weren’t quite right so I hope this one helps a bit this is my first tab 
RATE and COMMENT thanks lemme know if anything’s wrong too.

Tuning: EADG (Standard)

INTRO/Verse
G|------------------------------------|
D|------------------------------------|
A|--6--5--3--1------------------------|easy
E|------------------------------------|
       Or
G|------------------------------------|
D|------------------------------------|harder
A|--6--5h6p5--5h6\3--3h5\1--3/6-------|
E|------------------------------------|

Lights (chorus)


G|------------------------------------|
D|-6-5-3\1p0--------------------------|
A|----------3p1---3/6-----------------|
E|------------------------------------|x2

		then


  I will| tryyyy| to| fix yo|uuuu
G|------|-------|---|-------|---------|
D|-6-5--|--3-3-3|---|-5-----|---------|
A|------|-------|---|-------|-6-------|
E|------|-------|---|-------|---------|
(How it is played as he sings it, the timing
 Is wacky so listen close) [the “to” is in
The transition between the 3 and the 5]

	  (piano interlude)
G|------8------7------5------3--------|
D|------------------------------------|
A|---66-----55-----33-----11----------|
E|------------------------------------|
The last 6 on the above section is the
First on this one as soon as you play
It, start this above section (fyi 11 as
 in one one not eleven)


		THEN PLAY


		VERSE
You can use the interlude as the verse
if you want it’s as just octaves.


		THEN CHORUS

FAST PART (TEARS STREAM)
G|-----|-----|-----|-----|-----|-----|-----|-----|
D|-----|--6--|-----|-----|-----|--6--|-----|-----|
A|--6--|-----|--6--|-----|-----|-----|--6--|-----|
E|-----|-----|-----|--6--|--8--|-----|-----|--6--|

Transition is weird you have to listen for it


		THEN


Lights (chorus)


G|------------------------------------|
D|-6-5-3\1p0--------------------------|
A|----------3p1---3/6-----------------|
E|------------------------------------|x2

		then


  I will| tryyyy| to| fix yo|uuuu
G|------|-------|---|-------|---------|
D|-6-5--|--3-3-3|---|-5-----|---------|
A|------|-------|---|-------|-6-------|
E|------|-------|---|-------|---------|
(How it is played as he sings it, the timing
 Is wacky so listen close) [the "to" is in
The transition between the 3 and the 5]

THANKS


| /  slide up
| \  slide down
| h  hammer-on
| p  pull-off
            
Submit corrections

↑ Back to top | Tablatures and chords for acoustic guitar and electric guitar, ukulele, drums are parodies/interpretations of the original songs. You may use it for private study, scholarship, research or language learning purposes only