» » »

Coldplay - Fix You Tabs

Artists:  A B C D E F G H I J K L M N O P Q R S T U V W X Y Z # 

Fix You Tabs

(ver. 1) Click to play this song!
Coldplay
 Rating:
4.1/5 (31 vote)

 Fix You lessons Tabs too difficult? Try these video lessons and learn fast
 
                [Intro]

e|------------------------------------------------------------------------------|
B|------------------------------------------------------------------------------|
G|------------------------------------------------------------------------------|
D|------------------------------------------------------------------------------|
A|---3---------2----------0---------2-------------------------------------------|
E|------------------------------------------------------------------------------|(x2)


[Verse]

e|---------0---0----------------------------------------------------------------|
B|---------1------1----------1---1p0-----------1-------0------------------------|
G|--0--0--------------0--0------------2-----------------------------------------|
D|---------------------------2--------------2-----------------------------------|
A|---------------------------2--------0------------2----------------------------|
E|---------3--------------------------------------------------------------------|

e|---------0---0----------------------------------------------------------------|
B|---------1------1----------0---0h1p0--------------1--------0------------------|
G|--0--0---------------0-----------------2--------------------------------------|
D|---------------------------2------------------2-------------------------------|
A|---------------------------2-----------0---------------2----------------------|
E|---------3--------------------------------------------------------------------|


e|---------0---0-------------------------------------------------0----3---------|
B|---------1-------1----------0h1p0--------------1-------1---3---1---------1----|
G|--0--0---------------0--------------2--------------0-----------0--------------|
D|-------------------------------------------2----------------------------------|
A|---------3--------------2-----------0--------------------------3------2-------|
E|------------------------------------------------------------------------------|


e|------------------------------------------------------------------------------|
B|----------1-----------------0h1-----1-----------------------------------------|
G|------------------------------------------------------------------------------|
D|-----2----------------2-------------3-----------------------------------------|
A|--0---------------2-----------------3-----------------------------------------|
E|------------------------------------------------------------------------------|


[Chorus]

e|-------1---0------------------------------------------------------------------|
B|----------------3---1p0--------------1----------------------------------------|
G|-------------------------2p0-----2--------------------------------------------|
D|-------------------------------------3----------------------------------------|
A|-----------3--------- ---------------3----------------------------------------|
E|----------------3-------------3-----------------------------------------------|(x2)

e|--------1----0-------------------0--------------------------------------------|
B|--------1--------3------0-----1-----1----------1----------0---------1-------0-|
G|---2----2--------0----0-------------------------------------------------------|
D|--------3-----------------------------------2----------2---------2-------2----|
A|--------3--------3-----------------------3----------2---------0-------2-------|
E|--------1---------------------------------------------------------------------|


[Verse 2]

e|---------0---0---0------------------------------------------------------------|
B|---------1----------1--------1---1p0-----------1-------0----------------------|
G|----0------------------0--------------2---------------------------------------|
D|-----------------------------2--------------2---------------------------------|
A|-----------------------------2--------0------------2--------------------------|
E|---------3--------------------------------------------------------------------|

e|---------0---0----------------------------------------------------------------|
B|---------1------1----------0---1--0-----------1-------0-----------------------|
G|--0--0--------------0----------------2----------------------------------------|
D|---------------------------2--------------2-----------------------------------|
A|---------------------------2---------0------------2---------------------------|
E|---------3--------------------------------------------------------------------|

e|----------0---0--0---1---0-------------------------------------0----3-1-0-----|
B|----------1------------------3-----3p1--------1--------1h3-1---1-----------3--|
G|--0-0-0---------------------------------------------0----------0--------------|
D|-------------------------------------------2----------------------------------|
A|-------------------------3-------------------------------------3--------------|
E|----------3-------------------------------------------------------------------|


e|------------------------------------------------------------------------------|
B|---1------------0h1------1----------------------------------------------------|
G|------------------------------------------------------------------------------|
D|---2--------2------------3----------------------------------------------------|
A|---------2---------------3----------------------------------------------------|
E|------------------------------------------------------------------------------|


[Chorus]

e|-------1---0------------------------------------------------------------------|
B|----------------3---1p0--------------1----------------------------------------|
G|-------------------------2p0-----2--------------------------------------------|
D|-------------------------------------3----------------------------------------|
A|-----------3--------- ---------------3----------------------------------------|
E|----------------3-------------3-----------------------------------------------|(x2)

e|--------1----0-------------------0--------------------------------------------|
B|--------1--------3------0-----1-----1-----------------------------------------|
G|---2----2--------0----0-------------------------------------------------------|
D|--------3---------------------------------------------------------------------|
A|--------3--------3------------------------------------------------------------|
E|--------1---------------------------------------------------------------------|


[Bridge]

e|-------------------------------------3-----3-----3----------------------------|
B|-------1-----1-----1-----1-----1----------------------------------------------|
G|------------------------------------------------------------------------------|
D|------------------------------------------------------------------------------|
A|----3-----3-----3-----3-----3-----3-----3-----3-------------------------------|
E|------------------------------------------------------------------------------|


e|-------------------------------------3-----3-----3----------------------------|
B|-------1-----1-----1-----1-----1----------------------------------------------|
G|------------------------------------------------------------------------------|
D|----3-----3-----3-----3-----3----3-----3------3-------------------------------|
A|------------------------------------------------------------------------------|
E|------------------------------------------------------------------------------|


e|-------------------------------------3-----3-----3----------------------------|
B|-------1-----1-----1-----1-----1----------------------------------------------|
G|------------------------------------------------------------------------------|
D|------------------------------------------------------------------------------|
A|----3-----3-----3-----3-----3-----3-----3-----3-------------------------------|
E|------------------------------------------------------------------------------|


e|------------------------------------------------------------------------------|
B|-----1-----1-----0-----0-----0-----0-----0-----0------------------------------|
G|------------------------------------------------------------------------------|
D|------------------------------------------------------------------------------|
A|------------------------------------------------------------------------------|
E|---0----0-----3-----3-----3-----3-----3-----3---------------------------------|

e|-------------------------------------3-----3-----3----------------------------|
B|-------1-----1-----1-----1-----1----------------------------------------------|
G|------------------------------------------------------------------------------|
D|----2-----2-----2-----2-----2-----2-----2-----2-------------------------------|
A|------------------------------------------------------------------------------|
E|------------------------------------------------------------------------------|

e|-------------------------------------3-----3-----3----------------------------|
B|-------1-----1-----1-----1-----1----------------------------------------------|
G|------------------------------------------------------------------------------|
D|----3-----3-----3-----3-----3----3-----3------3-------------------------------|
A|------------------------------------------------------------------------------|
E|------------------------------------------------------------------------------|

e|-------------------------------------3-----3-----3----------------------------|
B|-------1-----1-----1-----1-----1----------------------------------------------|
G|------------------------------------------------------------------------------|
D|------------------------------------------------------------------------------|
A|----3-----3-----3-----3-----3-----3-----3-----3-------------------------------|
E|------------------------------------------------------------------------------|

e|------------------------------------------------------------------------------|
B|-----1-----1-----0-----0-----0-----0-----0-----0------------------------------|
G|------------------------------------------------------------------------------|
D|------------------------------------------------------------------------------|
A|------------------------------------------------------------------------------|
E|---0----0-----0-----3-----3-----3-----3-----3---------------------------------|

    C
e|--0-----0-----0-----0-----0-----0-----0-----3-----3-----3---------------------|
B|--1-----1-----1-----1-----1-----1-----1-----1-----1-----1---------------------|
G|--0-----0-----0-----0-----0-----0-----0-----0-----0-----0---------------------|
D|--2-----2-----2-----2-----2-----2-----2-----2-----2-----2---------------------|
A|--3-----3-----3-----3-----3-----3-----3-----3-----3-----3---------------------|
E|--0-----0-----0-----0-----0-----0-----0-----0-----0-----0---------------------|

    F
e|--1-----1-----1-----1-----1-----1-----1-----3-----3-----3---------------------|
B|--1-----1-----1-----1-----1-----1-----1-----1-----1-----1---------------------|
G|--2-----2-----2-----2-----2-----2-----2-----2-----2-----2---------------------|
D|--3-----3-----3-----3-----3-----3-----3-----3-----3-----3---------------------|
A|--3-----3-----3-----3-----3-----3-----3-----3-----3-----3---------------------|
E|--1-----1-----1-----1-----1-----1-----1-----1-----1-----1---------------------|

    C
e|--0-----0-----0-----0-----0-----0-----0-----3-----3-----3---------------------|
B|--1-----1-----1-----1-----1-----1-----1-----1-----1-----1---------------------|
G|--0-----0-----0-----0-----0-----0-----0-----0-----0-----0---------------------|
D|--2-----2-----2-----2-----2-----2-----2-----2-----2-----2---------------------|
A|--3-----3-----3-----3-----3-----3-----3-----3-----3-----3---------------------|
E|--0-----0-----0-----0-----0-----0-----0-----0-----0-----0---------------------|

   Gsus4              G
e|--3-----3-----3-----3-----3-----3-----3-----3-----3-----3---------------------|
B|--1-----1-----1-----0-----0-----0-----0-----0-----0-----0---------------------|
G|--0-----0-----0-----0-----0-----0-----0-----0-----0-----0---------------------|
D|--0-----0-----0-----0-----0-----0-----0-----0-----0-----0---------------------|
A|--0-----0-----0-----2-----2-----2-----2-----2-----2-----2---------------------|
E|--0-----0-----0-----3-----3-----3-----3-----3-----3-----3---------------------|

    Am7
e|--0-----0-----0-----0-----0-----0-----0-----3-----3-----3---------------------|
B|--1-----1-----1-----1-----1-----1-----1-----1-----1-----1---------------------|
G|--0-----0-----0-----0-----0-----0-----0-----0-----0-----0---------------------|
D|--2-----2-----2-----2-----2-----2-----2-----2-----2-----2---------------------|
A|--0-----0-----0-----0-----0-----0-----0-----0-----0-----0---------------------|
E|--0-----0-----0-----0-----0-----0-----0-----0-----0-----0---------------------|

    F
e|--1-----1-----1-----1-----1-----1-----1-----3-----3-----3---------------------|
B|--1-----1-----1-----1-----1-----1-----1-----1-----1-----1---------------------|
G|--2-----2-----2-----2-----2-----2-----2-----2-----2-----2---------------------|
D|--3-----3-----3-----3-----3-----3-----3-----3-----3-----3---------------------|
A|--3-----3-----3-----3-----3-----3-----3-----3-----3-----3---------------------|
E|--1-----1-----1-----1-----1-----1-----1-----1-----1-----1---------------------|

    C
e|--0-----0-----0-----0-----0-----0-----0-----3-----3-----3---------------------|
B|--1-----1-----1-----1-----1-----1-----1-----1-----1-----1---------------------|
G|--0-----0-----0-----0-----0-----0-----0-----0-----0-----0---------------------|
D|--2-----2-----2-----2-----2-----2-----2-----2-----2-----2---------------------|
A|--3-----3-----3-----3-----3-----3-----3-----3-----3-----3---------------------|
E|--0-----0-----0-----0-----0-----0-----0-----0-----0-----0---------------------|

   Gsus4              G
e|--3-----3-----3-----3-----3-----3-----3-----3-----3-----3---------------------|
B|--1-----1-----1-----0-----0-----0-----0-----0-----0-----0---------------------|
G|--0-----0-----0-----0-----0-----0-----0-----0-----0-----0---------------------|
D|--0-----0-----0-----0-----0-----0-----0-----0-----0-----0---------------------|
A|--0-----0-----0-----2-----2-----2-----2-----2-----2-----2---------------------|
E|--0-----0-----0-----3-----3-----3-----3-----3-----3-----3---------------------|


[Bridge 2]

    C                   F                      C         C
e|--0------0--0---------1---------1--1--------0---0-0---0--0--1-----------------|
B|--1------1--1---------1-----1---1--1--------1---------1--------3---1--3--3--3-|
G|--0------0--0---------2---------2--2--------0---------0--------0---------0----|
D|--2-------------------3---------------------2---------2-----------------------|
A|--3-------------3-----3-----------------3---3---------3-----------------------|
E|--0-------------------1---------------------0---------0--------3---------3----|(x2)

    Am7                 F
e|--0------0--0---------1------1--1-----3----3-----1p0-------------0------------|
B|--1------1--1---------1---1--1--1----------1-----------1----------------------|
G|--0------2--2---------2------2--2----------0----------------0-----------------|
D|--2-------------------3--------------------2----------------------------------|
A|--0-------------3-----3--------------------3----------------------------------|
E|--0-------------------1--------------------0----------------------------------|

    G                          F
e|--x--------x--------x--------x-------------------------------------------------|
B|--3--------0--------0--------1-------------------------------------------------|
G|--0--------0--------0--------2-------------------------------------------------|
D|--0--------0--------0--------3-------------------------------------------------|
A|--2--------2--------2--------3-------------------------------------------------|
E|--3--------3--------3--------x-------------------------------------------------|


[Outro]

e|------------------------------------------------------------------------------|
B|------------------------------------------------------------------------------|
G|------------------------------------------------------------------------------|
D|----3---2--0------------------------------------------------------------------|
A|---------------3p2----0-------0---3-------------------------------------------|
E|------------------------3-----------------------------------------------------|(x2)

e|------------------------------------------------------------------------------|
B|------------------------------------------------------------------------------|
G|------------------------------------------------------------------------------|
D|----------------0h2----0------------------------------------------------------|
A|------0----3------------------3--2--3-----------------------------------------|
E|------------------------------------------------------------------------------|            
Submit corrections


        Fix You lessons Hard to play? Try these video lessons and learn fast Fix You lessons
        
↑ Back to top | Tablatures and chords for acoustic guitar and electric guitar, ukulele, drums are parodies/interpretations of the original songs. You may use it for private study, scholarship, research or language learning purposes only