» » »

Coldplay - Army Of One Tabs

Artists:  A B C D E F G H I J K L M N O P Q R S T U V W X Y Z # 

Army Of One Tabs

(ver. 1) Click to play this song!
Coldplay
 Rating:
4.3/5 (16 votes)

 Army Of One  lessons Tabs too difficult? Try these video lessons and learn fast
 
                Chorus 1

"So I never say die. Aim never untrue. I'm never so high as when I'm with you.

e|---------------8------------------------------------8--------------------------|
B|---------------8------------------------------------8--------------------------|
G|---------------5----------------7-------------------5--------------------7-----|
D|--------------------------------8----------------------------------------8-----|
A|--------------------------------8----------------------------------------8-----|
E|--------------------------------6----------------------------------------6-----|

"And there isn't a fire that I wouldn't walk through. My army of one is gonna fight for you"

e|-------------------8--------------------------------------------8---------------------------|
B|-------------------8--------------------------------------------8---------------------------|
G|-------------------5--------------------------7-----------------5----------------------7----|
D|----------------------------------------------8----------------------------------------8----|
A|----------------------------------------------8----------------------------------------8----|
E|----------------------------------------------6----------------------------------------6----|

verse 2 (palm muted)

e|---------------------------------------------------------------------------------------------------|
B|---------------------------------------------------------------------------------------------------|
G|--12-12-12-12-12-12-12-12-12-12-12-12-12-12-12-12-10-10-10-10-10-10-10-10-10-10-10-10-10-10-10-10--| x4
D|--10-10-10-10-10-10-10-10-10-10-10-10-10-10-10-10--8--8--8--8--8--8--8--8--8--8--8--8--8--8--8--8--|
A|---------------------------------------------------------------------------------------------------|
E|---------------------------------------------------------------------------------------------------|

chorus 2

"So I never say die. Aim never untrue. I'm never so high as when I'm with you.

e|---------------8------------------------------------8--------------------------|
B|---------------8------------------------------------8--------------------------|
G|---------------5----------------7-------------------5--------------------7-----|
D|--------------------------------8----------------------------------------8-----|
A|--------------------------------8----------------------------------------8-----|
E|--------------------------------6----------------------------------------6-----|

"And there isn't a fire that I wouldn't walk through. My army of one is gonna fight for you"

e|-------------------8--------------------------------------------8---------------------------|
B|-------------------8--------------------------------------------8---------------------------|
G|-------------------5--------------------------7-----------------5----------------------7----|
D|----------------------------------------------8----------------------------------------8----|
A|----------------------------------------------8----------------------------------------8----|
E|----------------------------------------------6----------------------------------------6----|

"My army of one is gonna fall for you."

e|-----------8-----------------------------------------------------------------|
B|-----------8-----------------------------------------------------------------|
G|-----------5---------------------7-------------------------------------------|
D|---------------------------------8-------------------------------------------|
A|---------------------------------8-------------------------------------------|
E|---------------------------------6-------------------------------------------|

Outro

"Cause you reign.................. Cause you reign.....................

e|-----------8---------------------------------8---------------------------------|
B|-----------5---------------------------------5---------------------------------|
G|-----------5----------------7----------------5--------------------7------------|
D|----------------------------8-------------------------------------8------------|
A|----------------------------8-------------------------------------8------------|
E|----------------------------6-------------------------------------6------------|

2:44

e|------18------------------------18-----------------15------------|
B|------------------------------------16-15-16-18-18---------------|
G|--15---------------------12-15-----------------------------------| x5
D|----------13-12-13-15-15-----------------------------------------|
A|-----------------------------------------------------------------|
E|-----------------------------------------------------------------|

end on

e|------18---------------------------------------------------------|
B|-------------------------12-15-----------------------------------|
G|--15------13-12-13-15-15-----------------------------------------|
D|-----------------------------------------------------------------|
A|-----------------------------------------------------------------|
E|-----------------------------------------------------------------|
            
Submit corrections


        Army Of One  lessons Hard to play? Try these video lessons and learn fast Army Of One  lessons
        
↑ Back to top | Tablatures and chords for acoustic guitar and electric guitar, ukulele, drums are parodies/interpretations of the original songs. You may use it for private study, scholarship, research or language learning purposes only