» » »

Coldplay - Army Of One Tabs

Artists:  A B C D E F G H I J K L M N O P Q R S T U V W X Y Z # 

Army Of One Tabs

(ver. 2) Click to play this song!
Coldplay
 Rating:
4.3/5 (24 votes)

 Army Of One  lessons Tabs too difficult? Try these video lessons and learn fast
 
                [Intro (live only)]
e|-11--5-|-10--|-11--3-|-6-|
B|-------|-----|-------|---|
G|-13--7-|-12--|-13--5-|-7-| x4
D|-------|-----|-------|---|
A|-------|-----|-------|---|
E|-------|-----|-------|---|

[Chorus 1]
e|--11--|-(5)-|-10----------------------|-----------------|
B|------|-----|----13-------------------|-------16-15-----|
G|-(13)-|-(7)-|-------12----------------|-------------15--| x3
D|------|-----|----------13-14-13-14-11-|-17/20-----------|
A|------|-----|-------------------------|-----------------|
E|------|-----|-------------------------|-----------------|

e|---------|------------------|
B|-13~-----|------------------|
G|-----15~-|-13-12-15--12-----|
D|---------|--------------15~~|
A|---------|------------------|
E|---------|------------------|

[Verse 2]
Pm......................................................................................................
e|--------------------------------|-------------------|-------------------|-----------------------------|
B|--------------------------------|-------------------|-------------------|-----------------------------|
G|--12----12----12----12----12-12-|-12-12-12-12-12-10-|-10-10-10-10-10-10-|-12-10-10-10-10-10-10-10-10--| x3
D|--10----10----10----10----10-10-|-10-10-10-10-10--8-|--8--8--8--8--8--8-|-10--8--8--8--8--8--8--8--8--|
A|--------------------------------|-------------------|-------------------|-----------------------------|
E|--------------------------------|-------------------|-------------------|-----------------------------|

Pm...............................................................................................
e|--------------------------------|-------------------|-------------------|----------------------|
B|--------------------------------|-------------------|-------------------|----------------------|
G|--12----12----12----12----12-12-|-12-12-12-12-12-10-|-10-10-10-10-10-10-|-12-10-10-10-10-10~---|
D|--10----10----10----10----10-10-|-10-10-10-10-10--8-|--8--8--8--8--8--8-|-10--8--8--8--8--8~---|
A|--------------------------------|-------------------|-------------------|----------------------|
E|--------------------------------|-------------------|-------------------|----------------------|

[Chorus 2]
e|--11--|-(5)-|-10----------------------|-----------------|
B|------|-----|----13-------------------|-------16-15-----|
G|-(13)-|-(7)-|-------12----------------|-------------15--| x3
D|------|-----|----------13-14-13-14-11-|-17/20-----------|
A|------|-----|-------------------------|-----------------|
E|------|-----|-------------------------|-----------------|

e|---------|------------------|
B|-13~-----|------------------|
G|-----15~-|-13-12-15--12-----|
D|---------|--------------15~~|
A|---------|------------------|
E|---------|------------------|

e|-----------------|---------|------------------|
B|-------16-15-----|-13~-----|------------------|
G|-------------15--|-----15~-|-13-12-15--12-----|
D|-17/20-----------|---------|--------------15~~|
A|-----------------|---------|------------------|
E|-----------------|---------|------------------|

[Outro]
e|--11--|-(5)-|-10----------------------|-----------------|
B|------|-----|----13-------------------|-------16-15-----|
G|-(13)-|-(7)-|-------12----------------|-------------15--| x2
D|------|-----|----------13-14-13-14-11-|-17/20-----------|
A|------|-----|-------------------------|-----------------|
E|------|-----|-------------------------|-----------------|

e|------18-|-------------------|-----18-|----------------15-|
B|---------|-------------------|--------|-16-15-16-18-18----|
G|--15-----|----------------12-|-15-----|-------------------| x5
D|---------|-13-12-13-15-15----|--------|-------------------|
A|---------|-------------------|--------|-------------------|
E|---------|-------------------|--------|-------------------|

e|------18-|----------------------|
B|---------|----------------------|
G|--15-----|----------------12-15-|
D|---------|-13-12-13-15-15-------|
A|---------|----------------------|
E|---------|----------------------|            
Submit corrections


        Army Of One  lessons Hard to play? Try these video lessons and learn fast Army Of One  lessons
        
↑ Back to top | Tablatures and chords for acoustic guitar and electric guitar, ukulele, drums are parodies/interpretations of the original songs. You may use it for private study, scholarship, research or language learning purposes only