» » »

Coldplay - Adventure Of A Lifetime Tabs

Artists:  A B C D E F G H I J K L M N O P Q R S T U V W X Y Z # 

Adventure Of A Lifetime Tabs

(ver. 2) Click to play this song!
Coldplay
 Rating:
4.3/5 (19 votes)

 Adventure Of A Lifetime  lessons Tabs too difficult? Try these video lessons and learn fast
 
                [Intro]

e|--17--12--17--12-----------------------------------------------------------|
B|----------------15--13--15--13---------------------------------------------|
G|-------------------------------14--12--14--12------------------------------| x2
D|---------------------------------------------------------------------------|
A|---------------------------------------------------------------------------|
E|---------------------------------------------------------------------------|

e|--15--12--15--12-----------------------------------------------------------|
B|----------------15--13--15--13---------------------------------------------|
G|-------------------------------14--12--14--12------------------------------|        
D|---------------------------------------------------------------------------|
A|---------------------------------------------------------------------------|
E|---------------------------------------------------------------------------|


e|--15--12--15--12---------------------19--20--17----------------------------|
B|----------------15--13--15--13---------------------------------------------|
G|-------------------------------14--12--------------------------------------|        
D|---------------------------------------------------------------------------|
A|---------------------------------------------------------------------------|
E|---------------------------------------------------------------------------|             
Submit corrections


        Adventure Of A Lifetime  lessons Hard to play? Try these video lessons and learn fast Adventure Of A Lifetime  lessons
        
↑ Back to top | Tablatures and chords for acoustic guitar and electric guitar, ukulele, drums are parodies/interpretations of the original songs. You may use it for private study, scholarship, research or language learning purposes only