» » »

Coldplay - Adventure Of A Lifetime Tabs

Artists:  A B C D E F G H I J K L M N O P Q R S T U V W X Y Z # 

Adventure Of A Lifetime Tabs

(ver. 3) Click to play this song!
Coldplay
 Rating:
4.4/5 (5 votes)

 Adventure Of A Lifetime  lessons Tabs too difficult? Try these video lessons and learn fast
 
                [Intro]
                                                                                                    
e|--17p12--17p12-------12----------------------------17p12--17p12------12----------------------------|
B|----------------15------15--13--15p13---------------------------15-----15--13--15p13---------------|
G|----------------------------------------14/16\12----------------------------------------14/16\12---|
D|---------------------------------------------------------------------------------------------------|
A|---------------------------------------------------------------------------------------------------|
E|---------------------------------------------------------------------------------------------------|

                                                                                                    
e|--15p12--15p12-------12----------------------------15p12--15p12------12-----------------19-20------|
B|----------------15------15--13--15p13---------------------------15-----15--13--15p13---------------|
G|----------------------------------------14/16\12---------------------------------------------------|
D|---------------------------------------------------------------------------------------------------|
A|---------------------------------------------------------------------------------------------------|
E|---------------------------------------------------------------------------------------------------|
            
Submit corrections


        Adventure Of A Lifetime  lessons Hard to play? Try these video lessons and learn fast Adventure Of A Lifetime  lessons
        
↑ Back to top | Tablatures and chords for acoustic guitar and electric guitar, ukulele, drums are parodies/interpretations of the original songs. You may use it for private study, scholarship, research or language learning purposes only