» » »

Colbie Caillat - When The Darkness Comes Tabs

Artists:  A B C D E F G H I J K L M N O P Q R S T U V W X Y Z # 

When The Darkness Comes Tabs

(ver. 2) Click to play this song!
Colbie Caillat
 Rating:
4/5 (4 votes)

 When The Darkness Comes lessons Tabs too difficult? Try these video lessons and learn fast
 
                Hi Guys, this is my first tab, so I chose a simple, but beautiful song. I made the 
fingerpicking by ear.
I think it's 100% right, but feel free to correct me.

Capo: 2


Intro:
               Am                                 E
e|------------------------------------|---------------------------------|
B|------------------------------------|---------------------------------|
G|-----------2----------------2-------|---------1----------------1------|
D|------2---------2------2----------2-|----2---------2------2---------2-|
A|---0----0----0------0----0----0-----|---------------------------------|
E|------------------------------------|-0----0----0------0----0----0----|

                F                                    C
e|------------------------------------|---------------------------------|
B|------------------------------------|---------------------------------|
G|-----------2----------------2-------|---------0----------------0------|
D|------3---------3------3--------3---|-----2--------2------2---------2-|
A|------------------------------------|--3----3----3-----3-----3---3----|
E|---1----1----1------1----1----1-----|---------------------------------|


Verse: (In the first part, same as verse)

(Underneath the echoes...)

                 Am                                 E
e|------------------------------------|---------------------------------|
B|------------------------------------|---------------------------------|
G|-----------2----------------2-------|---------1----------------1------|
D|------2---------2------2----------2-|----2---------2-----2----------2-|
A|---0----0----0------0----0----0-----|---------------------------------|
E|------------------------------------|-0----0----0-----0-----0----0----|

                 F                                   C
e|------------------------------------|---------------------------------|
B|------------------------------------|---------------------------------|
G|-----------2----------------2-------|----------0----------------0-----|
D|------3---------3------3--------3---|-----2---------2------2--------2-|
A|------------------------------------|--3-----3----3-----3----3----3---|
E|---1----1----1------1----1----1-----|---------------------------------|

(There you were...)

       Dm/A                                 F
e|-------------------------------------|-----------------------|
B|-------------------------------------|-----------------------|
G|---------2-----------------2---------|-----------2-----------|
D|-----0---------0------0----------0---|------3---------3------|
A|--0----0----0------0-----0----0------|-----------------------|
E|-------------------------------------|---1----1----1------1--|

(In the second time, play 2 times and the whole F sequence)




Chorus:

(I'll be here waiting...)

             C                              Em
e|---------------------------------|---------------------------------|
B|---------------------------------|---------------------------------|
G|----------0----------------0-----|---------0----------------0------|
D|-----2---------2------2--------2-|-----2---------2-----2--------2--|
A|--3----3----3------3----3----3---|---------------------------------|
E|---------------------------------|--0----0----0-----0----0----0----|
                 
                Am                                F                          
e|------------------------------------|------------------------------------|
B|------------------------------------|------------------------------------|
G|-----------2----------------2-------|-----------2----------------2-------|
D|------2---------2------2----------2-|------3---------3------3--------3---|
A|---0----0----0------0----0----0-----|------------------------------------|
E|------------------------------------|---1----1----1------1----1----1-----|

Sequence:

Intro  1x
Verse  2x
Chorus 4x
Intro  1x
Verse  2x
Chorus 4x
Verse* 2x 
 Am Em F C
 Am Em F C
 Dm/A F
 Dm/A F
Chorus 5x (The 1st time: just streaming. The 2nd: play the E sequence instead Em)
Intro  1x 


 Am            E
Underneath the echoes
 F             C
Buried in the shadows
 Dm/A     F
There you were
 Am            E
Drawn into your mystery
 F             C
I was just beginning
 Dm/A     F
To see your ghost
 Dm/A     F
But you must know

     C        Em
I'll be here waiting
 Am     F
Hoping Praying
 C    Em       Am             F
That this light will guide you home.
 C        Em
When you're feeling lost
 Am     F
I'll leave, my love
 C         Em       
Hidden in the sun
 Am             F
For when the darkness comes

Now the door is open
The world I knew is broken
There's no return
Now my heart is not scared
Just knowing that you're out there
Watching me
So believe

Repeat Chorus



Hear the music to feel the rhythm. :)   Thanks
            
Submit corrections


        When The Darkness Comes lessons Hard to play? Try these video lessons and learn fast When The Darkness Comes lessons
        
↑ Back to top | Tablatures and chords for acoustic guitar and electric guitar, ukulele, drums are parodies/interpretations of the original songs. You may use it for private study, scholarship, research or language learning purposes only