» » »

Colbie Caillat - When The Darkness Comes Tabs

Artists:  A B C D E F G H I J K L M N O P Q R S T U V W X Y Z # 

When The Darkness Comes Tabs

(ver. 1) Click to play this song!
Colbie Caillat
 Rating:
4/5 (4 votes)

 When The Darkness Comes lessons Tabs too difficult? Try these video lessons and learn fast
 
                When the Darkness Comes (Fingerstyle Arrangement)

Original Fingerstyle version:

Capo - Fret 2.

INTRO:

E|---------------------------------------------|
B|---------------------------------------------|
G|--------2----------2----------1---------1----|
D|----2-----2----2-----2----2-----2---2-----2--|
A|--0---0------0---0---------------------------|
E|------------------------0---0-----0---0------|

E|------------------------------------------|
B|----------------------------------1-------|
G|-------2----------2-----------0-----0-----|
D|---3-----3----3-----3-----2-----2-----2---|
A|------------------------3---3-------------|
E|-1---1------1---1-------------------------|


VERSE:


E|------0-------------------------------------0--|
B|-1--3-----1-1-----0----0-1----------0-1--------|
G|-2-------------------2-----0-0----2---2---2----|
D|-2-2----2-------2----3-------2-4--0---3-3------|
A|-0----0-------2--------------3-----------------|
E|------------0-----0--1----------------1--------|

E|------0--------------------1-1-----0------------------|
B|-1--3-----1-1-----0----0-1--------------0-1----0-1-3--|
G|-2-------------------2-----------0----2---2--2---2----|
D|-2-2----2-------2----3---------2------0---3--0---3----|
A|-0----0-------2--------------3------------------------|
E|------------0-----0--1--------------------1-----------|


CHORUS:

E|-1-----0-----------------------------------------0-----------------|
B|----------3-----1--3-----1--0------------------3---3-1--------1-3--|
G|-----0--------0----2---2-------2--0-------0--0-0---0----2-----2----|
D|---2--------2------2-2------3--0--2---2--------2--------2--2--3----|
A|-3-----3-----------0-----0--------3-3---3---------------0----------|
E|----------0------------------------------------0---0----------1----|

E|-1-----0-----------------------------------------0-------------0------|
B|----------3-----1--3-----1--0------------------3---3-1-------3---3----|
G|-----0--------0----2---2-------2--0-------0--0-0---0----2--2-------1--|
D|---2--------2------2-2------3--0--2---2--------2--------2-------------|
A|-3-----3-----------0-----0--------3-3---3---------------0-------------|
E|----------0------------------------------------0---0------------------|


Order:

INTRO, VERSE, CHORUS, INTRO VERSE CHORUS, VERSE, CHORUS, CHORUS, INTRO
            
Submit corrections


        When The Darkness Comes lessons Hard to play? Try these video lessons and learn fast When The Darkness Comes lessons
        
↑ Back to top | Tablatures and chords for acoustic guitar and electric guitar, ukulele, drums are parodies/interpretations of the original songs. You may use it for private study, scholarship, research or language learning purposes only