» » »

Colbie Caillat - Oxygen Tabs

Artists:  A B C D E F G H I J K L M N O P Q R S T U V W X Y Z # 

Oxygen Tabs

(ver. 1) Click to play this song!
Colbie Caillat
 Rating:
4/5 (4 votes)

 Oxygen lessons Tabs too difficult? Try these video lessons and learn fast
 
                Previous Tabs didn't sound quite right, this one isnt perfect, but it's better (I think)

Chord Progression:

Eb Minor, Fb Minor, Ab Minor, Fb minor <---(Could be off, but it sounds right)


INTRO
e---------------------------------------|
B---------------------------------------|
G--12------------12-----------------12--|
D------13------------13-------13--------|
A-----------13-----------13-------------|
E---------------------------------------|

e---------------------------------------|
B---------------------------------------|
G--13----------13----------------13-----|
D------15-----------15-------15---------|
A-----------15-----------15-------------|
E---------------------------------------|

e---------------------------------------|
B---------------------------------------|
G--15-----------15--------------15------|
D------17-----------17------17----------|
A-----------17----------17--------------|
E---------------------------------------|


e---------------------------------------|
B---------------------------------------|
G--13----------13----------------13-----|
D------15-----------15-------15---------|
A-----------15-----------15-------------|
E---------------------------------------|

VERSE

e------------------------------------------------------------------ |
B------------------------------------------------------------------ |
G--12----------13------------15-----------13---------13------------.|
D------13-----------15-----------17------------15--------15-----15-.|
A----------13-----------15------------17-----------15--------15---- |
E------------------------------------------------------------------ |

CHORUS:

Will follow when I figure it out,

Please post suggestions for improvement in the comments section.
            
Submit corrections


        Oxygen lessons Hard to play? Try these video lessons and learn fast Oxygen lessons
        
↑ Back to top | Tablatures and chords for acoustic guitar and electric guitar, ukulele, drums are parodies/interpretations of the original songs. You may use it for private study, scholarship, research or language learning purposes only