» » »

Clutch - Willie Nelson Tabs

Artists:  A B C D E F G H I J K L M N O P Q R S T U V W X Y Z # 

Willie Nelson Tabs

(ver. 1) Click to play this song!
Clutch
 Rating:
4/5 (4 votes)

 Willie Nelson lessons Tabs too difficult? Try these video lessons and learn fast
 
                -------------------------------------------------------------------------------
-------------------------------------------------------------------------------
7.3.08

Tuning: Drop D

Intro & Chorus
e|-------------------------------------------------------|-----------------|
B|o------15------------13----------8---------------------|-----------------|
G|----------14------------12---------7-------------------|-----------------|
D|----0------------10----------5-------------------------|-----------------|
A|o---0------------10----------5-------------------------|---------------3-|
D|----0------------10----------5-------(5)(5)(5)5-5-5-5--|-5-5-5-5-5-3-5---|
                                                           second time

Verse
e|----------|-------------|-------------|-----------|--------------|
B|o---------|-------------|-------------|-----------|--------------|
G|----------|-------------|-------------|-----------|--------------|
D|----------|-------------|-------------|-----------|--------------|
A|o---5-3-5-|--3h5-3--5-5-|--3-5-5-0-0--|-3h5-3-5-5-|-3--5-5-------|
D|----------|------3--5-5-|--3-5-5-0-0--|-----3-5-5-|-3--5-5-------|
                  
Repeat Chorus

Bridge
Gt. 1
e|------------------------|--------------------|------------------------------------------|
B|o-----------------------|--------------------|------------------------------------------|
G|------------------------|--------------------|------------------------------------------|
D|------------------------|-5-5-5-5--5-5-5-5-5-|------------------------------------------|
A|o-5p3-5p3-3-5p3-5p3-0-0-|-3-3-3-3--3-3-3-3-3-|-5p3-5p3-3-5p3-5p3-0-0--3-3-3-3-3-5-3-0-0-|
D|----------3-5p3-5p3-0-0-|--------------------|---------3-5p3-5p3-0-0--3-3-3-3-3-5-3-0-0-|
  
Gt. 2        
e|-------------------------------------------------------------------|
B|o-------------------------10---------------------------------------|
G|--------------------------10-------------12b-12-10-12-10-12/14-----|
D|--/12~--------------10h12----12~\----/12~----------------------12--|
A|o-------------10h12------------------------------------------------|
D|-------------------------------------------------------------------|
                  
Last Chorus parts (in order)

Gt. 1
e|-------------------------------------------------------|
B|o------15------------13----------8---------------------|
G|----------14------------12---------7-------------------|
D|----0------------10----------5-------------------------|
A|o---0------------10----------5-------------------------|
D|----0------------10----------5-------(5)(5)(5)5-5-5-5--|
                                                           
Gt. 2                                                           
e|----------------------------------------------------------------------|
B|o---------------------------------------------------------------------|
G|----------------------------------------------------------------------|
D|--/12~-----------10---------------------------------------------------|
A|o---------------------------10------10p8h10p8h10p8h10p8h10p8h10p8h10--|
D|----------------------------------------------------------------------|


Gt. 1
e|-------------------------------------------------------|
B|o------15------------13----------8---------------------|
G|----------14------------12---------7-------------------|
D|----0------------10----------5-------------------------|
A|o---0------------10----------5-------------------------|
D|----0------------10----------5-------(5)(5)(5)5-5-5-5--|
                                                           
Gt. 2
e|----------------------------------------------------------------------|
B|o---------------------------------------------------------------------|
G|----------------------------------------------------------------------|
D|--/12~-----------10---------------------------------------------------|
A|o---------------------------10------10p8h10p8h10p8h10p8h10p8h10p8h10--|
D|----------------------------------------------------------------------|
                  

Gt. 1
e|----------------------------------------------------------|
B|o------15------------13----------8------------------------|
G|----------14------------12---------7----------------------|
D|----0------------10----------5----------------------------|
A|o---0------------10----------5----------------------------|
D|----0------------10----------5---------(5)(5)(5)5-5-5-5---|
                                                           
Gt. 2
e|-----------------------------------------------------------------------|
B|o----------------------------------------------------------------------|
G|-----------------------------------------------------------------------|
D|-------------------10-12----12~----------------------------------------|
A|o------8-10----/12-------------------10p8h10p8h10p8h10p8h10p8h10p8h10--|
D|--/12------------------------------------------------------------------|


Gt. 1
e|---------------------------------------------------------|
B|o------15------------13----------8-----------------------|
G|----------14------------12---------7---------------------|
D|----0------------10----------5---------------------------|
A|o---0------------10----------5------------------------3--|
D|----0------------10----------5----------5-5-5-5-5-3-5----|
                                                           
Gt. 2
e|-------------------------------------------------------------|
B|o------------------------------------------------------------|
G|-------------------------------------------------------------|
D|---/12~----------10---------------------------10-12p10h12~---|
A|o---------------------------10b-------8-10-12----------------|
D|-----------------------------------12------------------------|

Outro x2
Gt. 1
e|------------------------|--------------------|------------------------------------------|
B|o-----------------------|--------------------|------------------------------------------|
G|------------------------|--------------------|------------------------------------------|
D|------------------------|-5-5-5-5--5-5-5-5-5-|------------------------------------------|
A|o-5p3-5p3-3-5p3-5p3-0-0-|-3-3-3-3--3-3-3-3-3-|-5p3-5p3-3-5p3-5p3-0-0--3-3-3-3-3-5-3-0-0-|
D|----------3-5p3-5p3-0-0-|--------------------|---------3-5p3-5p3-0-0--3-3-3-3-3-5-3-0-0-|

Gt. 2        
e|-------------------------------------------------------------------|
B|o-------------------------10---------------------------------------|
G|--------------------------10-------------12b-12-10-12-10-12/14-----|
D|--/12~--------------10h12----12~\----/12~----------------------12--|
A|o-------------10h12------------------------------------------------|
D|-------------------------------------------------------------------|


WILLIE NELSON

Blackjack booted demons
Have surrounded my home
Got dogs and 'copters
and keep ringing my phone

Well I don't know if I'm coming or going
If it's them or me
Oh, but one things for certain
Willie Nelson only smokes the killer weed

Now they're breaking my windows
Banging on my doors
Got me down and hog-tied
Rifling through my drawers
Boss demon tells me
Oh how he would like to kill me
Sick of bullets tough guy
My disease does that for free

Well I don't know if I'm coming or going
If it's them or me
Oh, but one things for certain
Willie Nelson only smokes the killer weed
Well I don't know if I'm coming or going
If it's them or me
Oh, but one things for certain
Willie Nelson only smokes the greenest green
Well I don't know if I'm coming or going
If it's them or me
Oh, but one things for certain
Willie Nelson only smokes the killer weed
            
Submit corrections


        Willie Nelson lessons Hard to play? Try these video lessons and learn fast Willie Nelson lessons
        
↑ Back to top | Tablatures and chords for acoustic guitar and electric guitar, ukulele, drums are parodies/interpretations of the original songs. You may use it for private study, scholarship, research or language learning purposes only