» » »

Clutch - Whos Been Taking Tabs

Artists:  A B C D E F G H I J K L M N O P Q R S T U V W X Y Z # 

Whos Been Taking Tabs

(ver. 1) Click to play this song!
Clutch
 Rating:
4/5 (4 votes)

 Whos Been Taking  lessons Tabs too difficult? Try these video lessons and learn fast
 
                INTRO
******
Blues jazz Guitar Setting
00:26
  GUITAR 1
e|----10----10-12-|-------------------------------|----10----10-12-|-------------------------------|
B|-12----12-------|-------------------------------|-12----12-------|-------------------------------|
G|----------------|-------------------------------|----------------|-------------------------------|
D|----------------|-------------------------------|----------------|-------------------------------|
A|----------------|-------------------------------|----------------|-------------------------------|
E|----------------|-------------------------------|----------------|-------------------------------|
 |                                                                                                 |
 |GUITAR 2                                                                                         |
e|----------------|-------------------------------|----------------|-------------------------------|
B|----------------|---------s--------------p------|----------------|---------s--------------p------|
G|----------------|----12-14\15-14-12----14-12----|----------------|----12-14\15-14-12----14-12----|
D|----------------|-14----------------14-------14-|----------------|-14----------------14-------14-|
A|----------------|-------------------------------|----------------|-------------------------------|
E|----------------|-------------------------------|----------------|-------------------------------|


  GUITAR 1
e|----10----10-12-|----------------------|----10----10-12-|-------------------------------|
B|-12----12-------|----------------------|-12----12-------|-------------------------------|
G|----------------|----------------------|----------------|-------------------------------|
D|----------------|----------------------|----------------|-------------------------------|
A|----------------|----------------------|----------------|-------------------------------|
E|----------------|----------------------|----------------|-------------------------------|
 |                                                                                        |
 |GUITAR 2                                                                                |
e|----------------|----------------------|----------------|-------------------------------|
B|----------------|---------s------------|----------------|---------s--------------p------|
G|----------------|----12-14\15-14-12-14-|----------------|----12-14\15-14-12----14-12----|
D|----------------|-14-------------------|----------------|-14----------------14-------14-|
A|----------------|----------------------|----------------|-------------------------------|
E|----------------|----------------------|----------------|-------------------------------|


  GUITAR 1
e|----10----10-12-|----------------------|----10----10-12-|-------------------------------|
B|-12----12-------|----------------------|-12----12-------|-------------------------------|
G|----------------|----------------------|----------------|-------------------------------|
D|----------------|----------------------|----------------|-------------------------------|
A|----------------|----------------------|----------------|-------------------------------|
E|----------------|----------------------|----------------|-------------------------------|
 |                                                                                        |
 |GUITAR 2                                                                                |
e|----------------|----------------------|----------------|-------------------------------|
B|----------------|---------s------------|----------------|---------s--------------p------|
G|----------------|----12-14\15-14-12-14-|----------------|----12-14\15-14-12----14-12----|
D|----------------|-14-------------------|----------------|-14----------------14-------14-|
A|----------------|----------------------|----------------|-------------------------------|
E|----------------|----------------------|----------------|-------------------------------|


-----------------------------
-----------------------------
VERES 1 - Play this with the VERSE below
********
e|-----------------------|--|------------------------|-----------------------|-----------------------|
B|--------------brp------|--|--------------brp-------|--------------brp------|--------------brp---12-|
G|-------12-14-14--12----|--|-------12-14-14---12-14-|-------12-14-14--12----|-------12-14-14--12----|
D|-12-14--------------14-|--|-12-14------------------|-12-14--------------14-|-12-14-----------------|
A|-----------------------|--|------------------------|-----------------------|-----------------------|
E|-----------------------|X2|------------------------|-----------------------|-----------------------|

e|-----------------------|
B|--------------brp------|
G|-------12-14-14--12----|
D|-12-14--------------14-|
A|-----------------------|
E|-----------------------|

My baby caught the train
Left me all alone
My baby caught the train
Left me all alone
She know I love her
She done me wrong

-----------------------------
-----------------------------
VERSE 2 - Play this with the VERSE below
********
e|-----------------------|--|------------------------|-----------------------|-------------------------|
B|--------------brp------|--|--------------brp-------|--------------brp------|----------------------12-|
G|-------12-14-14--12----|--|-------12-14-14---12-14-|-------12-14-14--12----|-------12-14-14-14-12----|
D|-12-14--------------14-|--|-12-14------------------|-12-14--------------14-|-12-14-------------------|
A|-----------------------|--|------------------------|-----------------------|-------------------------|
E|-----------------------|X2|------------------------|-----------------------|-------------------------|

e|-----------------------|
B|--------------brp------|
G|-------12-14-14--12----|
D|-12-14--------------14-|
A|-----------------------|
E|-----------------------|

My baby bought the ticket
Long as her right arm
My baby bought the ticket
Long as my right arm
She say she gonna ride long
As I been from home

-----------------------------
-----------------------------
01:30
BREAK
******
  GUITAR 1
e|----10----10-12-|-------------------------------|----10----10-12-|-------------------------------|
B|-12----12-------|-------------------------------|-12----12-------|-------------------------------|
G|----------------|-------------------------------|----------------|-------------------------------|
D|----------------|-------------------------------|----------------|-------------------------------|
A|----------------|-------------------------------|----------------|-------------------------------|
E|----------------|-------------------------------|----------------|-------------------------------|
 |                                                                                                 |
 |GUITAR 2                                                                                         |
e|----------------|-------------------------------|----------------|-------------------------------|
B|----------------|---------s--------------p------|----------------|---------s--------------p------|
G|----------------|----12-14\15-14-12----14-12----|----------------|----12-14\15-14-12----14-12----|
D|----------------|-14----------------14-------14-|----------------|-14----------------14-------14-|
A|----------------|-------------------------------|----------------|-------------------------------|
E|----------------|-------------------------------|----------------|-------------------------------|


  GUITAR 1
e|----10----10-12-|-------------------------------|----10----10-12-|-------------------------------|
B|-12----12-------|-------------------------------|-12----12-------|-------------------------------|
G|----------------|-------------------------------|----------------|-------------------------------|
D|----------------|-------------------------------|----------------|-------------------------------|
A|----------------|-------------------------------|----------------|-------------------------------|
E|----------------|-------------------------------|----------------|-------------------------------|
 |                                                                                                 |
 |GUITAR 2                                                                                         |
e|----------------|-------------------------------|----------------|-------------------------------|
B|----------------|---------s--------------p------|----------------|---------s--------------p------|
G|----------------|----12-14\15-14-12----14-12----|----------------|----12-14\15-14-12----14-12----|
D|----------------|-14----------------14-------14-|----------------|-14----------------14-------14-|
A|----------------|-------------------------------|----------------|-------------------------------|
E|----------------|-------------------------------|----------------|-------------------------------|


  GUITAR 1
e|----10----10-12-|----------------------|----10----10-12-|-------------------------------|
B|-12----12-------|----------------------|-12----12-------|-------------------------------|
G|----------------|----------------------|----------------|-------------------------------|
D|----------------|----------------------|----------------|-------------------------------|
A|----------------|----------------------|----------------|-------------------------------|
E|----------------|----------------------|----------------|-------------------------------|
 |                                                                                        |
 |GUITAR 2                                                                                |
e|----------------|----------------------|----------------|-------------------------------|
B|----------------|---------s------------|----------------|---------s--------------p------|
G|----------------|----12-14\15-14-12-14-|----------------|----12-14\15-14-12----14-12----|
D|----------------|-14-------------------|----------------|-14----------------14-------14-|
A|----------------|----------------------|----------------|-------------------------------|
E|----------------|----------------------|----------------|-------------------------------|


-----------------------------
-----------------------------
01:52
CHORUS - Play this with the VERSE below
*******
e|-----------------------|--|------------------------|-----------------------|-----------------------|
B|--------------brp------|--|--------------brp-------|--------------brp------|--------------brp---12-|
G|-------12-14-14--12----|--|-------12-14-14---12-14-|-------12-14-14--12----|-------12-14-14--12----|
D|-12-14--------------14-|--|-12-14------------------|-12-14--------------14-|-12-14-----------------|
A|-----------------------|--|------------------------|-----------------------|-----------------------|
E|-----------------------|X2|------------------------|-----------------------|-----------------------|

e|-----------------------|
B|--------------brp------|
G|-------12-14-14--12----|
D|-12-14--------------14-|
A|-----------------------|
E|-----------------------|

Who's been talking everything that I do?
Who's been talking everything that I do?
Well, you my baby, I hate to lose
Well Goodbye baby, hate to see you go
Well Goodbye baby, hate to see you go
You know I love you
I'm the causing of it all

-----------------------------
-----------------------------
BRIDGE
*******
I'm the causing of it all
I'm the causing of it all
I'm the causing of it all
I'm the causing of it all
I'm the causing of it all

02:50
e|-------------------|
B|-------------------|
G|-------------------|
D|---s---------------|
A|-12\14-14-12-10----|
E|----------------12-|Repeat this and fade out

I'm the causing of it all            
Submit corrections


        Whos Been Taking  lessons Hard to play? Try these video lessons and learn fast Whos Been Taking  lessons
        
↑ Back to top | Tablatures and chords for acoustic guitar and electric guitar, ukulele, drums are parodies/interpretations of the original songs. You may use it for private study, scholarship, research or language learning purposes only