» » »

Clutch - Spleen Merchant Tabs

Artists:  A B C D E F G H I J K L M N O P Q R S T U V W X Y Z # 

Spleen Merchant Tabs

(ver. 1) Click to play this song!
Clutch
 Rating:
4.3/5 (16 votes)

 Spleen Merchant  lessons Tabs too difficult? Try these video lessons and learn fast
 
                [Intro]

e|---------------------6-8-6-----------------|
B|-----------------6-8-----------------------|
G|---------------------------12-12-----------|
D|---------------------------12-12-----------|
A|--12-11-10-3-5-5-----------------12-11-10--|
D|--12-11-10-3-5-5-----------------12-11-10--|


[Verse]

e|-----------------------------------6-8-6-----------------------------|
B|-------------------------------6-8-----------------------------------|
G|---------------------------------------------------------------------|
D|---------------------------------------------------------------------|
A|--3-5-5---3b-5-5--5-5---3b-5-5-----------5-5---3b-5-5--5-5---3b-5-5--|
D|--3-5-5-5----5-5--5-5-5----5-5-----------5-5-5----5-5--5-5-5----5-5--|
          x             x                      x             x

e|-------------------------------------8-6-----------------------------------------|
B|-----------------------------------------8-6-8-----------------------------------|
G|---------------------------------------------------------------------------------|
D|---------------------------------------------------------------------------------|
A|--5-5---3b-5-5--3/5-3/5-5-5---3b-5-5-----------5-5---3b-5-5--3/5-3/5-5-5---3b-5--|
D|--5-5-5----5-5--3/5-3/5-5-5-5----5-5-----------5-5-5----5-5--3/5-3/5-5-5-5----5--|
        x                     x                      x                     x

[Chorus]

e|----------------------------------------------------------------------------------|
B|----------------------3b-------------------5-5b-3-------------------------3b------|
G|----------------------3b-------------------5-5b-3-------------------------3b------|
D|------------------3-5----5-3----------------------5-3-----------------3-5----5-3--|
A|--5-5-5-3-8-3-5-5------------5-5-5-3-8-3-5------------5-5-5-3-8-3-5-5-------------|
D|--5-5-5-3-8-3-5--------------5-5-5-3-8-3-5------------5-5-5-3-8-3-5---------------|

e|---------------------------|
B|---------------------------|
G|---------------------------|
D|---------------------------|
A|--5-5-5-3-8-3-5--12-11-10--|
D|--5-5-5-3-8-3-5--12-11-10--|


[Verse]

e|-----------------------------------6-8-6-----------------------------|
B|-------------------------------6-8-----------------------------------|
G|---------------------------------------------------------------------|
D|---------------------------------------------------------------------|
A|--3-5-5---3b-5-5--5-5---3b-5-5-----------5-5---3b-5-5--5-5---3b-5-5--|
D|--3-5-5-5----5-5--5-5-5----5-5-----------5-5-5----5-5--5-5-5----5-5--|
          x             x                      x             x

e|-------------------------------------8-6-----------------------------------------|
B|-----------------------------------------8-6-8-----------------------------------|
G|---------------------------------------------------------------------------------|
D|---------------------------------------------------------------------------------|
A|--5-5---3b-5-5--3/5-3/5-5-5---3b-5-5-----------5-5---3b-5-5--3/5-3/5-5-5---3b-5--|
D|--5-5-5----5-5--3/5-3/5-5-5-5----5-5-----------5-5-5----5-5--3/5-3/5-5-5-5----5--|
        x                     x                      x                     x

[Chorus]

e|----------------------------------------------------------------------------------|
B|----------------------3b-------------------5-5b-3-------------------------3b------|
G|----------------------3b-------------------5-5b-3-------------------------3b------|
D|------------------3-5----5-3----------------------5-3-----------------3-5----5-3--|
A|--5-5-5-3-8-3-5-5------------5-5-5-3-8-3-5------------5-5-5-3-8-3-5-5-------------|
D|--5-5-5-3-8-3-5--------------5-5-5-3-8-3-5------------5-5-5-3-8-3-5---------------|

e|---------------------------------|
B|---------------------------------|
G|---------------------------------|
D|---------------------------------|
A|--5-5-5-3-8-3-5--12-11-10-3-5-5--|
D|--5-5-5-3-8-3-5--12-11-10-3-5-5--|


[Solo] 

(with Wah)

e|---------------------------------------------------------------------------|
B|---------------------------------------------------------------------------|
G|--10-10-10-10-10-10-10-10-9-9-9-9-9-9-9-9-8-8-8-8-8-8-8-8-7-7-7-7-7-7-7-7--|
D|---------------------------------------------------------------------------| 2x
A|---------------------------------------------------------------------------|
D|---------------------------------------------------------------------------|

e|--------------------------------------------------------|
B|--------3b---3---3---3---3----------3b---3--------------|
G|--------3b---3---3---3---3----------3b---3--------------|
D|--5-5-5----5---5---5---5---5--5-5-5----5---5-5-5-5-5-5--|
A|--------------------------------------------------------|
D|--------------------------------------------------------|

e|---------------------------------------------------------|
B|--------3b---3---3---3---3----------3b---3-3-3-3-3-3-3b--|
G|--------3b---3---3---3---3----------3b---3-3-3-3-3-3-3b--|
D|--5-5-5----5---5---5---5---5--5-5-5----5-----------------|
A|---------------------------------------------------------|
D|---------------------------------------------------------|


[Verse]

e|--------------------------------------------------------------------------------|
B|--------------------------------------------------------------------------------|
G|--------------------------------------------------------------------------------|
D|--------------------------------------------------------------------------------|
A|--5-5---3b-5-5--3/5-3/5-5-5---3b-5-5--3/5-3/5-5-5---3b-5-5--3/5-3/5-5-5---3b-5--|
D|--5-5-5----5-5--3/5-3/5-5-5-5----5-5--3/5-3/5-5-5-5----5-5--3/5-3/5-5-5-5----5--|
        x                     x                     x                     x              
 
[Chorus]

e|----------------------------------------------------------------------------------|
B|----------------------3b-------------------5-5b-3-------------------------3b------|
G|----------------------3b-------------------5-5b-3-------------------------3b------|
D|------------------3-5----5-3----------------------5-3-----------------3-5----5-3--|
A|--5-5-5-3-8-3-5-5------------5-5-5-3-8-3-5------------5-5-5-3-8-3-5-5-------------|
D|--5-5-5-3-8-3-5--------------5-5-5-3-8-3-5------------5-5-5-3-8-3-5---------------|

e|-----------------------------|
B|-----------------------------|
G|-----------------------------|
D|-----------------------------|
A|--5-5-5-3-8-3-5--12-11-10-3--|
D|--5-5-5-3-8-3-5--12-11-10-3--|


[Outro]

e|----------------------------------------------------|
B|----------------------------------------------------|
G|----------------------------------------------------|
D|----------------------------------------------------| 2x
A|--5-5-5-3-8-3-5--5-5-5-5--5-5-5-5-3-8-3-5--5-5-5-5--|
D|--5-5-5-3-8-3-5--5-5-5-5--5-5-5-5-3-8-3-5--5-5-5-5--|

e|--------------------------------------------|
B|--------------------------------------------|
G|--------------------------------------------|
D|--------------------------------------------|
A|--12-11-10-3-5-12-11-10-3-5-12-11-10-3-5-5--|
D|--12-11-10-3-5-12-11-10-3-5-12-11-10-3-5-5--|            
Submit corrections


        Spleen Merchant  lessons Hard to play? Try these video lessons and learn fast Spleen Merchant  lessons
        
↑ Back to top | Tablatures and chords for acoustic guitar and electric guitar, ukulele, drums are parodies/interpretations of the original songs. You may use it for private study, scholarship, research or language learning purposes only