» » »

Clutch - Sonic Counselor Tabs

Artists:  A B C D E F G H I J K L M N O P Q R S T U V W X Y Z # 

Sonic Counselor Tabs

(ver. 1) Click to play this song!
Clutch
 Rating:
4.3/5 (6 votes)

 Sonic Counselor lessons Tabs too difficult? Try these video lessons and learn fast
 
                [Intro] - GUITAR ONE
e|-------------------------------------------------------------------------------------------------------|
B|-------------------------------------------------------------------------------------------------------|
G|-------------------------------------------------------------------------------------------------------|
D|-------------------------------------------------------------------------------------------------------|  2X
A|----------------------3-3-5-3-----3-3-5-3-----3-3-5-3-----3-3-5-3-----3-3-5-3-----3-3-5-3-----3-3-5-3--|
E|--0-0-0-3-3-3-4-4-5-5---------5-5---------5-5---------5-5---------5-5---------5-5---------5-5----------|

[Intro] - GUITAR TWO
e|---------------------------------------------------------------------------------------------------|
B|--13b----------------13b--13b--------------13b----------------13b--15b-15p13--------13b------------|
G|------14-12-14-14-14----------14-12h14-14b-----14-12-14-14-14----------------12-14------14-12-14b--|
D|---------------------------------------------------------------------------------------------------|
A|---------------------------------------------------------------------------------------------------|
E|---------------------------------------------------------------------------------------------------|

e|---------------------------------------|
B|-------------15b-13--------------------|
G|--12-14-14b---------14-14b--12-14-14b--|
D|---------------------------------------|
A|---------------------------------------|
E|---------------------------------------|

[Verse]
e|-------------------------------------------------------------------------------------------------------|
B|-------------------------------------------------------------------------------------------------------|
G|-------------------------------------------------------------------------------------------------------|
D|-------------------------------------------------------------------------------------------------------|  2X
A|----------------------3-3-5-3-----3-3-5-3-----3-3-5-3-----3-3-5-3-----3-3-5-3-----3-3-5-3-----3-3-5-3--|
E|--0-0-0-3-3-3-4-4-5-5---------5-5---------5-5---------5-5---------5-5---------5-5---------5-5----------|


[Chorus]
e|-------------------------------------------------------------------------------|
B|-------------------------------------------------------------------------------|
G|-------------------------------------------------------------------------------|
D|-------------------2-2---------------2-2-----5-5---2-2---------------2-2--5-5--|
A|-------------------2-2--5-7----------2-2--5--5-5---2-2--5-7----------2-2--5-5--|
E|--0-0-0-3-3-3-4-4--0-0------5-5-6-7--0-0-----3-3---0-0------5-5-6-7--0-0--3-3--|

e|-------------------------------------------------------------------------------|
B|-------------------------------------------------------------------------------|
G|-------------------------------------------------------------------------------|
D|--2-2---------------2-2-----5-5---2-2---------------2-2--5-5-------------------|
A|--2-2--5-7----------2-2--5--5-5---2-2--5-7----------2-2--5-5-------------------|
E|--0-0------5-5-6-7--0-0-----3-3---0-0------5-5-6-7--0-0--3-3-------------------|


[Verse]
e|---------------------------------------------------------------|
B|---------------------------------------------------------------|
G|---------------------------------------------------------------|
D|---------------------------------------------------------------|
A|------3-3-5-3-----3-3-5-3-----3-3-5-3-----3-3-5-3-----3-3-5-3--|
E|--5-5---------5-5---------5-5---------5-5---------5-5----------|

e|-------------------------------------------------------------------|
B|-------------------------------------------------------------------|
G|-------------------------------------------------------------------|
D|-------------------------------------------------------------------|
A|------3-3-5-3-----3-3-5-3-----3-3-5-3-----3-3-5-3------------------|
E|--5-5---------5-5---------5-5---------5-5---------0-0-0-3-3-3-4-4--|

e|---------------------------------------------------------------|
B|---------------------------------------------------------------|
G|---------------------------------------------------------------|
D|---------------------------------------------------------------|
A|------3-3-5-3-----3-3-5-3-----3-3-5-3-----3-3-5-3-----3-3-5-3--|
E|--5-5---------5-5---------5-5---------5-5---------5-5----------|

e|-------------------------------------------|
B|-------------------------------------------|
G|-------------------------------------------|
D|-------------------------------------------|
A|------3-3-5-3-----3-3-5-3------------------|
E|--5-5---------5-5---------0-0-0-3-3-3-4-4--|


[Chorus]
e|--------------------------------------------------------------|
B|--------------------------------------------------------------|
G|--------------------------------------------------------------|
D|--2-2---------------2-2-----5-5---2-2---------------2-2--5-5--|
A|--2-2--5-7----------2-2--5--5-5---2-2--5-7----------2-2--5-5--|
E|--0-0------5-5-6-7--0-0-----3-3---0-0------5-5-6-7--0-0--3-3--|

e|----------------------------------------------------------------------5--------|
B|----------------------------------------------------------------------3--------|
G|----------------------------------------------------------------------0--------|
D|--2-2---------------2-2-----5-5---2-2---------------2-2--5-5-------------------|
A|--2-2--5-7----------2-2--5--5-5---2-2--5-7----------2-2--5-5-------------------|
E|--0-0------5-5-6-7--0-0-----3-3---0-0------5-5-6-7--0-0--3-3-------------------|


[Breakdown]
e|-------------------------------------------------------------------|
B|-------------------------------------------------------------------|
G|-------------------------------------------------------------------|
D|----------------------3-3-4-4-5-5----------------------------------|  6X
A|--------3-3-3-4-4-5-5-------------------3-3-3-4-4------------------|
E|--5-5-5---------------------------5-5-5-----------0-0-3-3-4-4-5-5--|

e|----------------------------|
B|----------------------------|
G|---7-7--5-5-----------------|
D|----------------------------|
A|---5-5--3-3--5-4-3----------|
E|-------------------5-4-3-2--|


[Verse]
e|---------------------------------------------------------------|
B|---------------------------------------------------------------|
G|---------------------------------------------------------------|
D|---------------------------------------------------------------|
A|------3-3-5-3-----3-3-5-3-----3-3-5-3-----3-3-5-3-----3-3-5-3--|
E|--5-5---------5-5---------5-5---------5-5---------5-5----------|

e|-------------------------------------------------------------------|
B|-------------------------------------------------------------------|
G|-------------------------------------------------------------------|
D|-------------------------------------------------------------------|
A|------3-3-5-3-----3-3-5-3-----3-3-5-3-----3-3-5-3------------------|
E|--5-5---------5-5---------5-5---------5-5---------0-0-0-3-3-3-4-4--|

e|---------------------------------------------------------------|
B|---------------------------------------------------------------|
G|---------------------------------------------------------------|
D|---------------------------------------------------------------|
A|------3-3-5-3-----3-3-5-3-----3-3-5-3-----3-3-5-3-----3-3-5-3--|
E|--5-5---------5-5---------5-5---------5-5---------5-5----------|

e|-------------------------------------------|
B|-------------------------------------------|
G|-------------------------------------------|
D|-------------------------------------------|
A|------3-3-5-3-----3-3-5-3------------------|
E|--5-5---------5-5---------0-0-0-3-3-3-4-4--|


[Chorus]
e|--------------------------------------------------------------|
B|--------------------------------------------------------------|
G|--------------------------------------------------------------|
D|--2-2---------------2-2-----5-5---2-2---------------2-2--5-5--|  2X
A|--2-2--5-7----------2-2--5--5-5---2-2--5-7----------2-2--5-5--|
E|--0-0------5-5-6-7--0-0-----3-3---0-0------5-5-6-7--0-0--3-3--|

            
Submit corrections


        Sonic Counselor lessons Hard to play? Try these video lessons and learn fast Sonic Counselor lessons
        
↑ Back to top | Tablatures and chords for acoustic guitar and electric guitar, ukulele, drums are parodies/interpretations of the original songs. You may use it for private study, scholarship, research or language learning purposes only