» » »

Clutch - Our Lady Of Electric Light Tabs

Artists:  A B C D E F G H I J K L M N O P Q R S T U V W X Y Z # 

Our Lady Of Electric Light Tabs

(ver. 1) Click to play this song!
Clutch
 Rating:
3/5 (30 votes)

 Our Lady Of Electric Light  lessons Tabs too difficult? Try these video lessons and learn fast
 
                 Intro
  Gtr II
  Q.   Q.   Q.   E E E   W        E Q.     W        E E E E   W        E Q.     W.
|----------------------|-----------------|------------------|------------3----|-7--------------------|
|----------------------|-----------------|------------------|-----------------|----------------------|
|----------------4-----|-----------------|------------4-----|-----------------|----------------------|
|------------------5---|-7----------5----|-7------------5---|-7---------------|----------------------|
|--------------------7-|-----------------|----------------7-|-----------------|----------------------|
|----------------------|-----------------|------------------|-----------------|----------------------|
|
| Gtr I                                  
| Q.   Q.   Q.   E E E   W        E Q.     W        E E E E   W        E Q.     W         E E E E
|----------------------|-----------------|------------------|-----------------|----------------------|
|----------------------|-1---------------|-1----------------|-1---------------|-1--------------------|
|----------------------|-2---------------|-2----------------|-2---------------|-2--------------------|
|----------------------|-2---------------|-2----------------|-2---------------|-2--------------------|
|----------------2-----|-0---------------|-0----------2-----|-0---------------|-0-------------0-2----|
|------------------3-0-|------------3----|--------------3-0-|------------3----|-------------3--------|


 (with eBow)
  H.          H     E  E    W.                         H.           H        E  E    W.
|-------------------------|-------------------------|----------------------------|---------------------|
|-------------------------|-------------------------|-------------------------12-|-10------------------|
|-9-----------7-----------|-------------------------|-9-----------12-------------|---------------------|
|----------------------5--|-7-----------------------|----------------------------|---------------------|
|-------------------------|-------------------------|----------------------------|---------------------|
|-------------------------|-------------------------|----------------------------|---------------------|
|
| E  E E Q.   E E E Q.      E  E E E E E Q.   E E E   E  E E Q.    E E E Q.         E  E E E E E H.
|-------------------------|-------------------------|----------------------------|---------------------|
|--------1----------------|--------1-----1----------|--------1-------------------|---------1-----1-----|
|------0------------0-----|------2---2---2----------|------0-------------0-------|-------2---2---2-----|
|----2------------0-------|----2-------2-2----------|----2-------------0---------|-----2-------2-2-----|
|-3-------------2---------|-0------------0------0-2-|-3--------------2-----------|--0------------0-----|
|-------------3-----------|-------------------3-----|--------------3-------------|---------------------|


   Verse
    Gtr II
    W        E E  E S S  x3  W        E E E E
||-----------------------||------------------|
||o-1----------1--0-1-0-o||-1----------------|
||--2--------------------||-2----------------|
||--2--------------------||-2----------------|
||o-0-------------------o||-0------------0-2-|
||-----------------------||------------3-----|
|
|   Gtr I
|   W        E Q.        x3 W        E E E E
||-----------------------||------------------|
||o-1-------------------o||-1----------------|
||--2--------------------||-2----------------|
||--2--------------------||-2----------------|
||o-0-------------------o||-0------------0-2-|
||-------------3---------||------------3-----|


 Chorus
  E E E Q.   E E E Q.     E E E E E E Q.   E E E   E E E Q.   E E E Q.     E E E E E E H.
|-----------------------|------------------------|-----------------------|-------------------|
|-------1---------------|-------1-----1----------|-------1---------------|-------1-----1-----|
|-----0------------0----|-----2---2---2----------|-----0------------0----|-----2---2---2-----|
|---2------------0------|---2-------2-2----------|---2------------0------|---2-------2-2-----|
|-3------------2--------|-0-----------0------0-2-|-3------------2--------|-0-----------0-----|
|------------3----------|------------------3-----|------------3----------|-------------------|


 Bridge
  Gtr II
  H        S S  E E   E H         Q.       S S  E E   H.
|-------------------------------|-------------------------------|
|-------------------------------|-------------------------------|
|-9-----------------------------|-9-----------------------------|
|---------10-9----9--10-9-------|---------10-9----9-------------|
|--------------12---------------|--------------12---------------|
|-------------------------------|--------------------12---------|
|
| Gtr I
| Q.   Q.         Q.      E E E   Q.   Q.         Q.      Q.
|-------------------------------|-------------------------------|
|-------------------------------|-------------------------------|
|-------------------------------|-------------------------------|
|-2----2----------2-------------|-2----2----------2-------------|
|-2----2----------2-------2-----|-2----2----------2-------------|
|-0----0----------0---------3-2-|-0----0----------0-------3-----|


   Q.      S S  E E  E  E  H          Q.      S S  E E  H.
|----------------------------------|----------------------------------|
|-10-------------------------------|-10-------------------------------|
|---------10-9----9-10-12-10-------|---------10-9----9----------------|
|--------------12------------------|--------------12------------------|
|----------------------------------|-------------------12-------------|
|----------------------------------|----------------------------------|
|
|  E  E E  E    E E  E  E  E E E E    E  E E  E    E E  E  E E E E E
|----------------------------------|----------------------------------|
|--1--1-1--1----1-1--1--1--1-------|--1--1-1--1----1-1--1--1-1--------|
|--2--2-2--2----2-2--2--2--2-------|--2--2-2--2----2-2--2--2-2--------|
|--2--2-2--2----2-2--2--2--2-------|--2--2-2--2----2-2--2--2-2--------|
|--0--0-0--0----0-0--0--0--0-------|--0--0-0--0----0-0--0--0-0-2------|
|----------------------------3-3-3-|-----------------------------3-2--|


  Q.    S   E  S  E Q.    S  E    S  E    Q.    S   E  S  E  H.
|--------------------------------------|-------------------------------|
|--------------------------------------|-10----------------------------|
|-9----12--11-12-11-9----12-11---12-11-|-------12--11-12-11------------|
|--------------------------------------|--------------------12---------|
|--------------------------------------|-------------------------------|
|--------------------------------------|-------------------------------|
|
| Q.    Q.          Q.    E    E     E    Q.    Q.           Q.   Q.
|--------------------------------------|-------------------------------|
|--------------------------------------|-------------------------------|
|--------------------------------------|-------------------------------|
|-2-----2-----------2------------------|--2-----2------------2---------|
|-2-----2-----------2-----2------------|--2-----2------------2---------|
|-0-----0-----------0----------3-----2-|--0-----0------------0----3----|


   S  E.   E  E  E  E  S E.    E  Q.        S  E.   E  E  E  E  S E.    E  Q.
|----------------------------------------|----------------------------------------|
|-10---------------10--------------------|-10---------------10--------------------|
|----------9-10----------9----10---------|----------9-10----------9----10---------|
|----12---------------12-----------------|----12---------------12-----------------|
|---------------12---------------12------|---------------12---------------12------|
|----------------------------------------|----------------------------------------|
|
|  E     E E  E  E  E  E    E  E  E  E E    E     E E  E  E  E  E    E  E  E  E E
|----------------------------------------|----------------------------------------|
|--1-----1-1--1--1--1--1----1--1--1--1-1-|--1-----1-1--1--1--1--1----1--1---------|
|--2-----2-2--2--2--2--2----2--2--2--2-2-|--2-----2-2--2--2--2--2----2--2---------|
|--2-----2-2--2--2--2--2----2--2--2--2-2-|--2-----2-2--2--2--2--2----2--2---------|
|--0-----0-0--0--0--0--0----0--0--0--0-0-|--0-----0-0--0--0--0--0----0--0--2------|
|----------------------------------------|------------------------------------3-2-|

 (tremolo picking with delay)
  |-3-| |-3-| |-3-| |-3-|  |--3--|  |--3--|  |--3--|  |--3--|  |--3--| |-3-| |-3-| |-3-|
  S S S S S S S S S S S S  S  S  S  S  S  S  S  S  S  S  S  S  S  S  S S S S S S S S S S
|----------------------------------------------------------------------------------------|
|----------------------------------------------------------------------------------------|
|-9-9-9-9-9-9-9-9-9-9-9-9-11-11-11-11-11-11-12-12-12-11-11-11-11-11-11-9-9-9-9-9-9-9-9-9-|
|----------------------------------------------------------------------------------------|
|----------------------------------------------------------------------------------------|
|----------------------------------------------------------------------------------------|
|
| E     E     E     E      E        E        E        E        E       E     E     E
|----------------------------------------------------------------------------------------|
|----------------------------------------------------------------------------------------|
|----------------------------------------------------------------------------------------|
|-2-----2-----2-----2------2--------2--------2--------2--------2-------2-----2-----2-----|
|-2-----2-----2-----2------2--------2--------2--------2--------2-------2-----2-----2-----|
|-0-----0-----0-----0------0--------0--------0--------0--------0-------0-----0-----0-----|


  |-3-| |-3-| |-3-| |-3-|  |--3--|  |--3--|  |--3--| |-3-| |-3-|  |--3--|  |--3--|  |--3--|
  S S S S S S S S S S S S  S  S  S  S  S  S  S  S  S S S S S S S  S  S  S  S  S  S  S  S  S
|----------------------------------------------------------------------------------------------|
|----------------------------------------------------------------------------------------------|
|-9-9-9-9-9-9-9-9-9-9-9-9-11-11-11-12-12-12-11-11-11-9-9-9-9-9-9-------------------------------|
|----------------------------------------------------------------12-12-12-12-12-12-12-12-12----|
|----------------------------------------------------------------------------------------------|
|----------------------------------------------------------------------------------------------|
|
| E     E     E     E      E        E        E       E     E      E        E        E
|----------------------------------------------------------------------------------------------|
|----------------------------------------------------------------------------------------------|
|----------------------------------------------------------------------------------------------|
|-2-----2-----2-----2------2--------2--------2-------2-----2------2--------2--------2----------|
|-2-----2-----2-----2------2--------2--------2-------2-----2------2--------2--------2----------|
|-0-----0-----0-----0------0--------0--------0-------0-----0------0--------0--------0----------|


   |--3--|  |--3--|  |--3--|  |--3--|  |--3--|  |--3--|  |--3--|  |--3--|  |--3--|  |--3--|  |--3--|  |--3--|
   S  S  S  S  S  S  S  S  S  S  S  S  S  S  S  S  S  S  S  S  S  S  S  S  S  S  S  S  S  S  S  S  S  S  S  S
|-------------------------------------------------------------------------------------------------------------|
|-10-10-10-10-10-10-10-10-10-10-10-10-12-12-12-13-13-13-12-12-12-10-10-10-10-10-10----------------------------|
|----------------------------------------------------------------------------------12-12-12-12-12-12-12-12-12-|
|-------------------------------------------------------------------------------------------------------------|
|-------------------------------------------------------------------------------------------------------------|
|-------------------------------------------------------------------------------------------------------------|
|
|  E        E        E        E        E        E        E        E        E        E        E        E
|-------------------------------------------------------------------------------------------------------------|
|--1--------1--------1--------1--------1--------1--------1--------1--------1--------1--------1--------1-------|
|--2--------2--------2--------2--------2--------2--------2--------2--------2--------2--------2--------2-------|
|--2--------2--------2--------2--------2--------2--------2--------2--------2--------2--------2--------2-------|
|--0--------0--------0--------0--------0--------0--------0--------0--------0--------0--------0--------0-------|
|-------------------------------------------------------------------------------------------------------------|


   |--3--|  |--3--|  |--3--|  |---3----|  |--3--|  |--3--|
   S  S  S  S  S  S  S  S  S  S     S  S  S  S  S  S  S  S  h.
|-----------------------------------------------------------------|
|-10-10-10-10-10-10-10-10-10-12b13-12-12-12-12-12-12-12-12-10-----|
|-----------------------------------------------------------------|
|-----------------------------------------------------------------|
|-----------------------------------------------------------------|
|-----------------------------------------------------------------|
|
|  E        E        E        E           E        E        H.
|-----------------------------------------------------------------|
|--1--------1--------1--------1-----------1--------1--------1-----|
|--2--------2--------2--------2-----------2--------2--------2-----|
|--2--------2--------2--------2-----------2--------2--------2-----|
|--0--------0--------0--------0-----------0--------0--------0-----|
|-----------------------------------------------------------------|            
Submit corrections


        Our Lady Of Electric Light  lessons Hard to play? Try these video lessons and learn fast Our Lady Of Electric Light  lessons
        
↑ Back to top | Tablatures and chords for acoustic guitar and electric guitar, ukulele, drums are parodies/interpretations of the original songs. You may use it for private study, scholarship, research or language learning purposes only