» » »

Clutch - Open Up The Border Tabs

Artists:  A B C D E F G H I J K L M N O P Q R S T U V W X Y Z # 

Open Up The Border Tabs

(ver. 1) Click to play this song!
Clutch
 Rating:
4/5 (4 votes)

 Open Up The Border lessons Tabs too difficult? Try these video lessons and learn fast
 
                Clutch 
Open Up the Border
Pure Rock Fury

standard

my fav song off a godly cd

chorus/intro:
|-------------------------------|
|-------------------------------|
|-------------------------------|
|-44444444--4-7-4-9-7--22222222-|
|-22222222--2-5-2-7-5--00000000-|
|-------------------------------|

guitar 2:
|-7-7-7-7-7-7-7-7-----5----5----5----5---------|
|-7-7-7-7-7-7-7-7-----5----5----5----5h6p5-----|
|-----------------7b----7b---7b---7b-------7-4-|
|----------------------------------------------|
|----------------------------------------------|
|----------------------------------------------|
*during the choruses play it w/out all the 
 bells and whistles.... listen to the song 
 you'll see what i mean.

verse:
|-----------------------------------|
|-----------------------------------|
|-----------------------------------|
|-7br-4--7br-4-2-4-2-4-7br-4--7br-4-|
|-5br-2--5br-2-0-2-0-2-5br-2--5br-2-|
|-----------------------------------|

pre chorus:
|--------------------------|
|--------------------------|
|--------------------------|
|-4-----7------2-----------|
|-2-----5------0------2----|
|---------------------0----|

bridge:
|-----------------------------|------------------|
|-----------------------------|------------------|
|---------------------------7-|----------------7-|
|-----3/5~-------5/7------7---|-9~-9~-9~-7-9-9---|
|-5----------5----------------|------------------|
|-3----------7----------------|------------------|
                                              x2

- sean 
            
Submit corrections


        Open Up The Border lessons Hard to play? Try these video lessons and learn fast Open Up The Border lessons
        
↑ Back to top | Tablatures and chords for acoustic guitar and electric guitar, ukulele, drums are parodies/interpretations of the original songs. You may use it for private study, scholarship, research or language learning purposes only