» » »

Clutch - Noble Savage Tabs

Artists:  A B C D E F G H I J K L M N O P Q R S T U V W X Y Z # 

Noble Savage Tabs

(ver. 1) Click to play this song!
Clutch
 Rating:
1.9/5 (30 votes)

 Noble Savage  lessons Tabs too difficult? Try these video lessons and learn fast
 
                   Intro
||----------------------------------|---------------------------------|
||o---------------------------------|---------------------------------|
||----------------------------------|---------------------------------|
||----------------------------------|---------------------------------|
||o-7-7-7-7-7-7-7-7-7-7-7-7-7-7-7-7-|-7-7-7-7-7-7-7-7-7-7-7-7-7-7-7-7-|
||--5-5-5-5-5-5-5-5-5-5-5-5-5-5-5-5-|-5-5-5-5-5-5-5-5-5-5-5-5-5-5-5-5-|


|---------------------------------|-------------------------||
|---------------------------------|------------------------o||
|---------------------------------|-------------------------||
|---------------------------------|-------------------------||
|---------------------------------|------------------------o||
|-3p0-0-5p0-0-6p0-0-5p0-0-6p0-7p0-|-6p0-0-5p0-0-3p0-(0)-----||


   Verse
    E
||----------------------------------|-------------------------||
||o---------------------------------|------------------------o||
||----------------------------------|-------------------------||
||----------------------------------|-------------------------||
||o---------------------------------|------------------------o||
||--3p0-0-5p0-0-6p0-0-5p0-0-6p0-7p0-|-6p0-0-5p0-0-3p0-(0)-----||

  A
|---------------------------------|-----------------------------------|
|---------------------------------|-----------------------------------|
|---------------------------------|-----------------------------------|
|---------------------------------|-----------------------------------|
|-7-7-7-7-7-7-7-7-7-7-7-7-7-7-7-7-|-7-7-7-7-7-7-7-7-7-7-7-7-7-7-7-7---|
|-5-5-5-5-5-5-5-5-5-5-5-5-5-5-5-5-|-5-5-5-5-5-5-5-5-5-5-5-5-5-5-5-5---|

  E
|---------------------------------|------------------------|
|---------------------------------|------------------------|
|---------------------------------|------------------------|
|---------------------------------|------------------------|
|---------------------------------|------------------------|
|-3p0-0-5p0-0-6p0-0-5p0-0-6p0-7p0-|-6p0-0-5p0-0-3p0-(0)----|


   Chorus
    B
||----------------------------------|----------------------------------|
||o---------------------------------|----------------------------------|
||----------------------------------|----------------------------------|
||----------------------------------|----------------------------------|
||o-9-9-9-9-9-9-9-9-9-9-9-9-9-9-9-9-|-9-9-9-9-9-9-9-9-9-9-9-9-9-9-9-9--|
||--7-7-7-7-7-7-7-7-7-7-7-7-7-7-7-7-|-7-7-7-7-7-7-7-7-7-7-7-7-7-7-7-7--|


                          1.                       2.
|-----------------------|------------------------||-----------------|
|-----------------------|-----------------------o||-----------------|
|-9-9-9-12-12-12-12-12--|-9-9-9-12-12-12-12-12---||-9-9-9-----------|
|-9-9-9-12-12-12-12-12--|-9-9-9-12-12-12-12-12---||-9-9-9-----------|
|-----------------------|-----------------------o||--------7--------|
|-----------------------|------------------------||----------6-5----|


   Solo (while rhythm guitar continues verse and chorus riffs)
    E
||--3-0-0-5-0-0-6-0-0-5-0-0-6-0-7-0-|-6-0-0-5-0-0-3-0-(0)--------------||
||o---------------------------------|---------------------12----------o||
||----------------------------------|---------------------14b16-14b16--||
||----------------------------------|----------------------------------||
||o---------------------------------|---------------------------------o||
||----------------------------------|----------------------------------||

   A
|---------------------------|-------------------|
|---------------------------|-----------5-5-5---|
|----5-7-7b7.5==7-7-7r(7)-5-|-(5)-------5-5-5---|
|--7------------------------|-----5-7-5-------7-|
|---------------------------|-------------------|
|---------------------------|-------------------|

  E
|-3-0-0-5-0-0-6-0-0-5-0-0-6-0-7-0-|-6-0-0-5-0-0-3-0-(0)--------------|
|---------------------------------|---------------------12-----------|
|---------------------------------|---------------------14b16--14b16-|
|---------------------------------|----------------------------------|
|---------------------------------|----------------------------------|
|---------------------------------|----------------------------------|

  B
|--------------------------|-----------------------------|
|--------------------------|-----------------------------|
|-------------7-9b11-9-7---|-------------7-9b11-9-7-(7)--|
|-9-7-7-9-7-7------------9-|-9-7-7-9-7-7-----------------|
|--------------------------|-----------------------------|
|--------------------------|-----------------------------|

  E
|-------------------------------------------------|----------------------------------------|
|-------15-------15-------15-------15-------15----|----15-------15-17-17-17-17-15----------|
|-14S16----14S16----14S16----14S16----14S16----14S|-16----14S16-------------------16-14-12-|
|-------------------------------------------------|----------------------------------------|
|-------------------------------------------------|----------------------------------------|
|-------------------------------------------------|----------------------------------------|

  B
|-10-0-9-0-7-0-9-0-10-0-9-0-7-0-9-0-|-10-0-9-0-7-0-9-0-10-0-9-0-12-0-12-0-|
|-----------------------------------|-------------------------------------|
|-----------------------------------|-------------------------------------|
|-----------------------------------|-------------------------------------|
|-----------------------------------|-------------------------------------|
|-----------------------------------|-------------------------------------|

  E
|-------------------------------------------------|-------------------------------------------|
|-------15-------15-------15-------15-------15----|----15-------15-17-17-17-17-15----15-17b19-|
|-14S16----14S16----14S16----14S16----14S16----14S|-16----14S16-------------------16----------|
|-------------------------------------------------|-------------------------------------------|
|-------------------------------------------------|-------------------------------------------|
|-------------------------------------------------|-------------------------------------------|            
Submit corrections


        Noble Savage  lessons Hard to play? Try these video lessons and learn fast Noble Savage  lessons
        
↑ Back to top | Tablatures and chords for acoustic guitar and electric guitar, ukulele, drums are parodies/interpretations of the original songs. You may use it for private study, scholarship, research or language learning purposes only