» » »

Clutch - Molt Bass

Artists:  A B C D E F G H I J K L M N O P Q R S T U V W X Y Z # 

Molt Bass

(ver. 1) Click to play this song!
Clutch
 Rating:
4.3/5 (16 votes)

 Molt lessons Tabs too difficult? Try these video lessons and learn fast
 
                [Intro (0:00)]

  1 + 2 + 3 + 4 +  1 + 2 + 3 + 4 +  1 + 2 + 3 + 4 +  1 + 2 + 3 + 4 +
G|------------r---|r---------------|--------------r-|r---------------|
D|------------e---|e---------------|--------------e-|e---------------| play
A|------------s---|s---------------|--------------s-|s---------------|  x1
E|0-0-0-0-0-0-t---|t---------------|0-0-0-0-0-0-0-t-|t---------------|

  1 + 2 + 3 + 4 +  1 + 2 + 3 + 4 +  1 + 2 + 3 + 4 +  1 + 2 + 3 + 4 +
G|------------r---|r---------------|----------------|----------------|
D|------------e---|e---------------|----------------|----------------| play
A|------------s---|s---------------|----------------|----------------|  x1
E|0-0-0-0-0-0-t---|t---------------|0-0-0-0-0-0-0-0-|0-0-0-0-0-0-0-0-|


[Verse 1 (0:20)]

  1 + 2 + 3 + 4 +  1 + 2 + 3 + 4 +  1 + 2 + 3 + 4 +  1 + 2 + 3 + 4 +       \
G|------------r---|r---------------|--------------r-|r---------------|      |
D|------------e---|e---------------|--------------e-|e---------------| play |
A|------------s---|s---------------|--------------s-|s---------------|  x1  |
E|0-0-0-0-0-0-t---|t---------------|0-0-0-0-0-0-0-t-|t---------------|      |
                                                                            | play
  1 + 2 + 3 + 4 +  1 + 2 + 3 + 4 +  1 + 2 + 3 + 4 +  1 + 2 + 3 + 4 +        |  x2
G|------------r---|r---------------|----------------|----------------|      |
D|------------e---|e---------------|----------------|----------------| play |
A|------------s---|s---------------|----------------|----------------|  x1  |
E|0-0-0-0-0-0-t---|t---------------|0-0-0-0-0-0-0-0-|0-0-0-0-0-0-0-0-|     /

  1 + 2 + 3 + 4 +  1 + 2 + 3 + 4 +  1 + 2 + 3 + 4 +  1 + 2 + 3 + 4 +
G|------------r---|r---------------|----------------|----------------|
D|------------e---|e---------------|----------------|----------------| play
A|------------s---|s---------------|----------------|----------------|  x1
E|0-0-0-0-0-0-t---|t---------------|0-0-0-0-0-0-0-0-|0-0-0-0-0-0-0-0-|


[Bridge (1:10)]

  1 + 2 + 3 + 4 +   1 + 2 + 3 + 4 +
G|----------------|-----------------|
D|----------------|-----------------| play
A|----------------|-----------------|  x16
E|0-----0-6-6-6-5-|(5)--0---6-5-4---|


[Verse 2 (2:29)]

  1 + 2 + 3 + 4 +   1 + 2 + 3 + 4 +
G|----------------|-----------------|
D|----------------|-----------------| play
A|----------------|-----------------|  x8 
E|0-----0-6-6-6-5-|(5)--0---6-5-4---|

  1 + 2 + 3 + 4 +  1 + 2 + 3 + 4 +  1 + 2 + 3 + 4 +  1 + 2 + 3 + 4 +
G|------------r---|r---------------|----------------|----------------|
D|------------e---|e---------------|----------------|----------------| play
A|------------s---|s---------------|----------------|----------------|  x1
E|0-0-0-0-0-0-t---|t---------------|0-0-0-0-0-0-0-0-|0-0-0-0-0-0-0-0-|


[Verse 3 (3:19)

  1 + 2 + 3 + 4 +   1 + 2 + 3 + 4 +
G|----------------|-----------------|
D|----------------|-----------------| play
A|----------------|-----------------|  x8 
E|0-----0-6-6-6-5-|(5)--0---6-5-4---|


[Chorus (3:59)]

  1 + 2 + 3 + 4 +   1 + 2 + 3 + 4 +
G|----------------|-----------------|
D|----------------|-----------------| play
A|----------------|-----------------|  x8 
E|0-----0-6-6-6-5-|(5)--0---6-5-4---|


[Bridge (4:39)]

  1 + 2 + 3 + 4 +   1 + 2 + 3 + 4 +  1 + 2 + 3 + 4 +   1 + 2 + 3 + 4 +
G|----------------|-----------------|----------------|-----------------|
D|----------------|-----------------|----------------|-----------------| play
A|----------------|-----------------|----------------|-----------------|  x2
E|0---0-0-2-2-2-3-|(3)--0---2---3---|0---0-0-3-3-3-2-|(2)--0---3-0-3---|

  1 + 2 + 3 + 4 +   1 + 2 + 3 + 4 +
G|----------------|-----------------|
D|----------------|-----------------| play
A|----------------|-----------------|  x8 
E|0-----0-6-6-6-5-|(5)--0---6-5-4---|

Rest for 16 measures.


[Chorus/Outro (5:58)]

  1 + 2 + 3 + 4 +   1 + 2 + 3 + 4 +  1 + 2 + 3 + 4 +   1 + 2 + 3 + 4 +
G|----------------|-----------------|----------------|-----------------|
D|----------------|-----------------|----------------|-----------------| play
A|----------------|-----------------|----------------|-----------------|  x4
E|0---0-0-2-2-2-3-|(3)--0---2---3---|0---0-0-3-3-3-2-|(2)--0---3-0-3---|

  1 + 2 + 3 + 4 +
G|----------------||
D|----------------|| play
A|----------------||  x1
E|0---------------||

            
Submit corrections


        Molt lessons Hard to play? Try these video lessons and learn fast Molt lessons
        
↑ Back to top | Tablatures and chords for acoustic guitar and electric guitar, ukulele, drums are parodies/interpretations of the original songs. You may use it for private study, scholarship, research or language learning purposes only