» » »

Clutch - Lorelei Tabs

Artists:  A B C D E F G H I J K L M N O P Q R S T U V W X Y Z # 

Lorelei Tabs

(ver. 1) Click to play this song!
Clutch
 Rating:
4.3/5 (27 votes)

 Lorelei lessons Tabs too difficult? Try these video lessons and learn fast
 
                [Intro]
   Larsen
e|--------------------------|
B|--------------------------|
G|--------------------------|
D|--------------------------|
A|--7-----------------------|
E|--------------------------|

e|-------------------|-------------------|-------------------|-------------------|
B|-------------------|-------------------|-------------------|-------------------|
G|--------4-4-0-2----|-------------------|--------4-4-0-2--0-|-------------------|
D|--2--2-------------|-------------------|--2--2-------------|--1-------------4--|
A|-------------------|-------------------|-------------------|-------------------|
E|-------------------|-------------------|-------------------|-------------------|

e|-------------------|-------------------|-------------------|-------------------|
B|-------------------|-------------------|-------------------|-------------------|
G|--------4-4-0-2----|-------------------|--------0----------|--------0----------|
D|--2--2-------------|-------------------|------4------------|------4------------|
A|-------------------|-------------------|--3----------------|--2----------------|
E|-------------------|-------------------|-------------------|--------------3b---|

e|-------------------|-------------------|-------------------|-------------------|
B|-------------------|-------------------|-------------------|-------------------|
G|--------4-4-0-2----|-------------------|--------4-4-0-2--0-|-------------------|
D|--2--2-------------|-------------------|--2--2-------------|--1-------------4--|
A|-------------------|-------------------|-------------------|-------------------|
E|-------------------|-------------------|-------------------|-------------------|

e|-------------------|-------------------|-------------------|-------------------|
B|-------------------|-------------------|-------------------|-------------------|
G|--------4-4-0-2----|-------------------|--------0----------|--------0----------|
D|--2--2-------------|-------------------|------4------------|------4------------|
A|-------------------|-------------------|--3----------------|--2----------------|
E|-------------------|-------------------|-------------------|--------------3b---|

[Verse 1]
e|-------------------|-------------------|-------------------|-------------------|
B|-------------------|-------------------|-------------------|-------------------|
G|--------4-4-0-2----|-------------------|--------4-4-0-2--0-|-------------------|
D|--2--2-------------|-------------------|--2--2-------------|--1-------------4--|
A|-------------------|-------------------|-------------------|-------------------|
E|-------------------|-------------------|-------------------|-------------------|

e|-------------------|-------------------|-------------------|-------------------|
B|-------------------|-------------------|-------------------|-------------------|
G|--------4-4-0-2----|-------------------|--------0----------|--------0----------|
D|--2--2-------------|-------------------|------4------------|------4------------|
A|-------------------|-------------------|--3----------------|--2----------------|
E|-------------------|-------------------|-------------------|--------------3b---|

e|-------------------|-------------------|-------------------|-------------------|
B|-------------------|-------------------|-------------------|-------------------|
G|--------4-4-0-2----|-------------------|--------4-4-0-2--0-|-------------------|
D|--2--2-------------|-------------------|--2--2-------------|--1-------------4--|
A|-------------------|-------------------|-------------------|-------------------|
E|-------------------|-------------------|-------------------|-------------------|

e|-------------------|-------------------|-------------------|-------------------|
B|-------------------|-------------------|-------------------|-------------------|
G|--------4-4-0-2----|-------------------|--------0----------|--------0----------|
D|--2--2-------------|-------------------|------4------------|------4------------|
A|-------------------|-------------------|--3----------------|--2----------------|
E|-------------------|-------------------|-------------------|--------------3b---|

[Chorus 1]
e|---------------------|---------------------|---------------------|
B|---------------------|---------------------|---------------------|
G|---------------------|---------------------|---------------------|
D|------9-7-9--11/12---|------9-7-9--11/12---|------9-7-9--11/12---|
A|--2---7-5-7---9/10---|--2---7-5-7---9/10---|--2---7-5-7---9/10---|
E|--0------------------|--0------------------|--0------------------|

e|-------------------|-------------------|
B|-------------------|-------------------|
G|-------------------|-------------------|
D|-------10----10----|--9----9-----9-----|
A|-10--10----10---10-|--9--9-----9-------|
E|--8----------------|--7------------3b--|
e|---------------------|---------------------|---------------------|
B|---------------------|---------------------|---------------------|
G|---------------------|---------------------|---------------------|
D|------9-7-9--11/12---|------9-7-9--11/12---|------9-7-9--11/12---|
A|--2---7-5-7---9/10---|--2---7-5-7---9/10---|--2---7-5-7---9/10---|
E|--0------------------|--0------------------|--0------------------|

e|-------------------|-------------------|-------------------|
B|-------------------|-------------------|-------------------|
G|-------------------|-------------------|-------------------|
D|-------10----10----|--9----9-----------|--2----------------|
A|-10--10----10---10-|--9--9-------------|--2----------------|
E|--8----------------|--7---------0--3b--|--0----------------|

[Verse 2]
e|-------------------|-------------------|-------------------|-------------------|
B|-------------------|-------------------|-------------------|-------------------|
G|--------4-4-0-2----|-------------------|--------4-4-0-2--0-|-------------------|
D|--2--2-------------|-------------------|--2--2-------------|--1-------------4--|
A|-------------------|-------------------|-------------------|-------------------|
E|-------------------|-------------------|-------------------|-------------------|

e|-------------------|-------------------|-------------------|-------------------|
B|-------------------|-------------------|-------------------|-------------------|
G|--------4-4-0-2----|-------------------|--------0----------|--------0----------|
D|--2--2-------------|-------------------|------4------------|------4------------|
A|-------------------|-------------------|--3----------------|--2----------------|
E|-------------------|-------------------|-------------------|--------------3b---|

e|-------------------|-------------------|-------------------|-------------------|
B|-------------------|-------------------|-------------------|-------------------|
G|--------4-4-0-2----|-------------------|--------4-4-0-2--0-|-------------------|
D|--2--2-------------|-------------------|--2--2-------------|--1-------------4--|
A|-------------------|-------------------|-------------------|-------------------|
E|-------------------|-------------------|-------------------|-------------------|

e|-------------------|-------------------|-------------------|-------------------|
B|-------------------|-------------------|-------------------|-------------------|
G|--------4-4-0-2----|-------------------|--------0----------|--------0----------|
D|--2--2-------------|-------------------|------4------------|------4------------|
A|-------------------|-------------------|--3----------------|--2----------------|
E|-------------------|-------------------|-------------------|--------------3b---|

[Chorus 2]
e|---------------------|---------------------|---------------------|
B|---------------------|---------------------|---------------------|
G|---------------------|---------------------|---------------------|
D|------9-7-9--11/12---|------9-7-9--11/12---|------9-7-9--11/12---|
A|--2---7-5-7---9/10---|--2---7-5-7---9/10---|--2---7-5-7---9/10---|
E|--0------------------|--0------------------|--0------------------|

e|-------------------|-------------------|
B|-------------------|-------------------|
G|-------------------|-------------------|
D|-------10----10----|--9----9-----9-----|
A|-10--10----10---10-|--9--9-----9-------|
E|--8----------------|--7------------3b--|

e|---------------------|---------------------|---------------------|
B|---------------------|---------------------|---------------------|
G|---------------------|---------------------|---------------------|
D|------9-7-9--11/12---|------9-7-9--11/12---|------9-7-9--11/12---|
A|--2---7-5-7---9/10---|--2---7-5-7---9/10---|--2---7-5-7---9/10---|
E|--0------------------|--0------------------|--0------------------|

e|-------------------|-------------------|-------------------|
B|-------------------|-------------------|-------------------|
G|-------------------|-------------------|-------------------|
D|-------10----10----|--9----9-----------|--2----------------|
A|-10--10----10---10-|--9--9-------------|--2----------------|
E|--8----------------|--7---------0--3b--|--0----------------|


[Bridge]

e|----------------------------------|
B|----------------------------------|
G|-----12--12-9-7---9---------------|
D|----------------------------------|
A|--7------------------7-7-7-7-7-7--|
E|----------------------------------| x7

e|----------------------------------|
B|----------------------------------|
G|-----12--12-9-7---9\--------------|
D|----------------------------------|
A|--7-------------------------------|
E|----------------------------------|


[Chorus 3]
e|---------------------|---------------------|---------------------|
B|---------------------|---------------------|---------------------|
G|--4---4-2-4----7-----|--4---4-2-4----7-----|--4---4-2-4----7-----|
D|--2---2-0-2----5-----|--2---2-0-2----5-----|--2---2-0-2----5-----|
A|---------------------|---------------------|---------------------|
E|---------------------|---------------------|---------------------|

e|-------------------|-------------------|
B|-------------------|-------------------|
G|-------------------|-------------------|
D|-------10----10----|--9----9-----9-----|
A|-10--10----10---10-|--9--9-----9-------|
E|--8----------------|--7------------3b--|

e|---------------------|---------------------|---------------------|
B|---------------------|---------------------|---------------------|
G|--4---4-2-4----7-----|--4---4-2-4----7-----|--4---4-2-4----7-----|
D|--2---2-0-2----5-----|--2---2-0-2----5-----|--2---2-0-2----5-----|
A|---------------------|---------------------|---------------------|
E|---------------------|---------------------|---------------------|

e|-------------------|-------------------|-------------------|
B|-------------------|-------------------|-------------------|
G|-------------------|-------------------|-------------------|
D|-------7-----7-----|--9----9-----------|--2----------------|
A|--9--9-----9---9---|--9--9-------------|--2----------------|
E|--8----------------|--7---------0--3b--|--0----------------|

[Outro]
e|-------------------|-------------------|-------------------|-------------------|
B|-------------------|-------------------|-------------------|-------------------|
G|--------4-4-0-2----|-------------------|--------4-4-0-2--0-|-------------------|
D|--2--2-------------|-------------------|--2--2-------------|--1-------------4--|
A|-------------------|-------------------|-------------------|-------------------|
E|-------------------|-------------------|-------------------|-------------------|

e|-------------------|-------------------|-------------------|-------------------|
B|-------------------|-------------------|-------------------|-------------------|
G|--------4-4-0-2----|-------------------|--------0----------|--------0----------|
D|--2--2-------------|-------------------|------4------------|------4------------|
A|-------------------|-------------------|--3----------------|--2----------------|
E|-------------------|-------------------|-------------------|--------------3b---|

e|-------------------|
B|-------------------|
G|-------------------|
D|--2----------------|
A|--2----------------|
E|--0----------------|
            
Submit corrections


        Lorelei lessons Hard to play? Try these video lessons and learn fast Lorelei lessons
        
↑ Back to top | Tablatures and chords for acoustic guitar and electric guitar, ukulele, drums are parodies/interpretations of the original songs. You may use it for private study, scholarship, research or language learning purposes only