» » »

Clutch - King Of Arizona Tabs

Artists:  A B C D E F G H I J K L M N O P Q R S T U V W X Y Z # 

King Of Arizona Tabs

(ver. 1) Click to play this song!
Clutch
 Rating:
4.4/5 (7 votes)

 King Of Arizona lessons Tabs too difficult? Try these video lessons and learn fast
 
                -------------------------------------------------------------------------------
-------------------------------------------------------------------------------


8.09.07

Tuning: Standard


Intro/Verse
                    A
e|----------------------------------------|
B|o---------------------------------------|
G|----------------------------3p2p0-2^----|
D|----0h3-3-3-3-3-3-3-3-3-3-0-------------|
A|o---------------------------------------|
E|----------------------------------------|

                    B

e|--------|
B|o-------|
G|---7-8--|
D|---7-8--|
A|o--5-6--|
E|--------|

Chorus              C1

e|----------------------------------------------------------------|
B|o------------14b15-14-12-14p12------------14b15-14-12-14-12~----|
G|-------------14b15-14-12-14p12------------14b15-14-12-14-12~----|
D|-------------------------------14-------------------------------|
A|o-----7---7-------------------------7---------------------------|
E|----0-0-0-0-----------------------0-0-0-0-----------------------|

e|----------------------------------------------------------------|
B|-------------14b15-14-12-14p12----------------------------------|
G|-------------14b15-14-12-14p12----------------------------------|
D|-------------------------------14-------------------------------|
A|------7---------------------------2-2-5-5-5-6-6-7-7----5-6-7----|
E|----0-0-0-0-----------------------0-0-3-3-3-4-4-5-5--7----------|


                    D
Solo

e|----------------------------------------------|
B|o---------------------------------------------|
G|-------7b8-7-5~------------7b8-7-5~-----------|
D|-----------------7-5----------------7-5-------|
A|o--77----------------5------------------5-----|
E|---55------------------5~-----------------5~--|

e|-----------------------------------------------------------------|
B|-----------------7b8-7-5-7-5-7-5--------5-5----------------------|
G|----8-8p7p5-7-5--7b8-7-5-7-5-7-5--------5-5----------------------|
D|---------------------------------7-5-7------7-5-7-5----5*--------|
A|----------------------------------------------------7-----7-5-7--|
E|-----------------------------------------------------------------|

e|--------------------------------------|
B|---7b8r7-5----------------------------|
G|---7b8r7-5----------------------------|
D|-----------7-7------------------------|
A|--------------------------------------|
E|----------------8-5-5-8-5-5-8-5~------|

                    C2

e|----------------------------------------------------------------|
B|o------------14b15-14-12-14p12------------14b15-14-12-14-12~----|
G|-------------14b15-14-12-14p12------------14b15-14-12-14-12~----|
D|-------------------------------14-------------------------------|
A|o-----7---7-------------------------7---------------------------|
E|----0-0-0-0-----------------------0-0-0-0-----------------------|

e|----------------------------------------------------------------|
B|-------------14b15-14-12-14p12----------------------------------|
G|-------------14b15-14-12-14p12----------------------------------|
D|-------------------------------14-------------------------------|
A|------7---------------------------2-2-5-5-5-6-6-7-7----5h7-5----|
E|----0-0-0-0-----------------------0-0-3-3-3-4-4-5-5--7----------|

e|-----|
B|-----|
G|-----|
D|--2--|
A|--2--|
E|--0--|

Order
Ax16
B
Ax8
B
C1x1
C2x1
Ax12
B
C1x1
C2x1
D
B
C1x3
C2x1
E
            
Submit corrections


        King Of Arizona lessons Hard to play? Try these video lessons and learn fast King Of Arizona lessons
        
↑ Back to top | Tablatures and chords for acoustic guitar and electric guitar, ukulele, drums are parodies/interpretations of the original songs. You may use it for private study, scholarship, research or language learning purposes only