» » »

Clutch - Gravel Road Bass

Artists:  A B C D E F G H I J K L M N O P Q R S T U V W X Y Z # 

Gravel Road Bass

(ver. 1) Click to play this song!
Clutch
 Rating:
4.3/5 (6 votes)

 Gravel Road lessons Tabs too difficult? Try these video lessons and learn fast
 
                [Intro (0:00)]

Rest 10 measures.


[Verse 1 (0:20)]

Rest 8 measures.

  1 2 3 4  1 2 3 4  1 2 3 4   1 2 3 4
G|--------|--------|--------|---------|
D|--------|--------|--------|---------| play
A|--------|--------|--------|---------|  x1
D|5-------|3-------|0-------|(0)------|

  1 + 2 + 3 + 4 +   1 + 2 + 3 + 4 +  1 + 2 + 3 + 4 +  1 + 2 + 3 + 4 +
G|----------------|-----------------|r---------------|r---------------|
D|----------------|-----------------|e---------------|e---------------| play
A|----------------|-----------------|s---------------|s---------------|  x2
D|0---------------|(0)--------3-3-0-|t---------3-3-0-|t---------------|

  1 2 3 4  1 2 3 4  1 2 3 4   1 2 3 4
G|--------|--------|--------|---------|
D|--------|--------|--------|---------| play
A|--------|--------|--------|---------|  x1
D|5-------|3-------|0-------|(0)------|


[Chorus (1:10)]

  1 e + a 2 e + a 3 e + a 4 e + a  1 e + a 2 e + a 3 e + a 4 e + a
G|----r-----------------r-------r-|----r---------------------------|
D|----e-----------------e-3-----e-|----e---------------------------| play
A|3-5-s-5---3-5-------3-s-----5-s-|3-5-s-5---3-5-------------------|  x2
D|----t-----------------t-------t-|----t---------------------------|

  1 e + a 2 e + a 3 e + a 4 e + a  1 e + a 2 e + a 3 e + a 4 e + a
G|----r-----------------r-------r-|----r-----------------r-------r-|
D|----e-----------------e-3-----e-|----e-----------------e-------e-| play
A|3-5-s-5---3-5-------3-s-----5-s-|3-5-s-5---3-5-------3-s-3---5-s-|  x1
D|----t-----------------t-------t-|----t-----------------t-------t-|

  1 e + a 2 e + a 3 e + a 4 e + a  1 e + a 2 e + a 3 e + a 4 e + a
G|----r-----------------r-------r-|----r---------------------------|
D|----e-----------------e-3-----e-|----e---------------------------| play
A|3-5-s-5---3-5-------3-s-----5-s-|3-5-s-5---3-5-------------------|  x1
D|----t-----------------t-------t-|----t---------------------------|


[Verse 2 (1:27)]

  1 + 2 + 3 + 4 +   1 + 2 + 3 + 4 +  1 + 2 + 3 + 4 +  1 + 2 + 3 + 4 +
G|----------------|-----------------|r---------------|r---------------|
D|----------------|-----------------|e---------------|e---------------| play
A|----------------|-----------------|s---------------|s---------------|  x2
D|0---------------|(0)--------3-3-0-|t---------3-3-0-|t---------------|

  1 2 3 4  1 2 3 4  1 2 3 4   1 2 3 4
G|--------|--------|--------|---------|
D|--------|--------|--------|---------| play
A|--------|--------|--------|---------|  x1
D|5-------|3-------|0-------|(0)------|


[Chorus (1:52)]

  1 e + a 2 e + a 3 e + a 4 e + a  1 e + a 2 e + a 3 e + a 4 e + a       \
G|----r-----------------r-------r-|----r---------------------------|      |
D|----e-----------------e-3-----e-|----e---------------------------| play |
A|3-5-s-5---3-5-------3-s-----5-s-|3-5-s-5---3-5-------------------|  x2  |
D|----t-----------------t-------t-|----t---------------------------|      |
                                                                          |
  1 e + a 2 e + a 3 e + a 4 e + a  1 e + a 2 e + a 3 e + a 4 e + a        |
G|----r-----------------r-------r-|----r-----------------r-------r-|      |
D|----e-----------------e-3-----e-|----e-----------------e-------e-| play | play
A|3-5-s-5---3-5-------3-s-----5-s-|3-5-s-5---3-5-------3-s-3---5-s-|  x1  |  x2
D|----t-----------------t-------t-|----t-----------------t-------t-|      |
                                                                          |
  1 e + a 2 e + a 3 e + a 4 e + a  1 e + a 2 e + a 3 e + a 4 e + a        |
G|----r-----------------r-------r-|----r---------------------------|      |
D|----e-----------------e-3-----e-|----e---------------------------| play |
A|3-5-s-5---3-5-------3-s-----5-s-|3-5-s-5---3-5-------------------|  x1  |
D|----t-----------------t-------t-|----t---------------------------|     /


[False Outro (2:25)]

  1 2 3 4  1 2 3 4  1 2 3 4   1 2 3 4
G|--------|--------|--------|---------| play x2,
D|--------|--------|--------|---------| second time
A|--------|--------|--------|---------| hold last note
D|5-------|3-------|0-------|(0)------| until 2:55


[New Riff (2:47)]

Rest 3 measures.

  1 e + a 2 e + a 3 e + a 4  e  +  a
G|r-----------------------------------|
D|e----------------------/12-12-12-12-| play
A|s-----------------------------------|  x1
D|t-----------------------------------|

  1 e + a 2 e + a 3 e + a 4 e + a  1 e + a 2 e + a 3 e + a 4 e + a
G|--------------------------------|--------------------------------|
D|---/12--------------------------|---/12--------------------------| play
A|--------------------------------|--------------------------------|  x2
D|0-----------0---5-3-3-0-3-5-7---|0-----------0---5-3-3-0-3-5-0---|


[Verse 3 (3:09)]

  1 e + a 2 e + a 3 e + a 4 e + a  1 e + a 2 e + a 3 e + a 4 e + a
G|--------------------------------|--------------------------------|
D|---/12--------------------------|---/12--------------------------| play
A|--------------------------------|--------------------------------|  x2
D|0-----------0---5-3-3-0-3-5-7---|0-----------0---5-3-3-0-3-5-0---|


[Guitar Solo (3:20)]

  1 e + a 2 e + a 3 e + a 4 e + a  1 e + a 2 e + a 3 e + a 4 e + a
G|--------------------------------|--------------------------------|
D|---/12--------------------------|---/12--------------------------| play
A|--------------------------------|--------------------------------|  x2
D|0-----------0---5-3-3-0-3-5-7---|0-----------0---5-3-3-0-3-5-0---|


[Verse 4 (3:41)]

  1 e + a 2 e + a 3 e + a 4 e + a  1 e + a 2 e + a 3 e + a 4 e + a
G|--------------------------------|--------------------------------|
D|---/12--------------------------|---/12--------------------------| play
A|--------------------------------|--------------------------------|  x4
D|0-----------0---5-3-3-0-3-5-7---|0-----------0---5-3-3-0-3-5-0---|


[Organ Solo (4:02)]

  1 e + a 2 e + a 3 e + a 4 e + a  1 e + a 2 e + a 3 e + a 4 e + a
G|--------------------------------|--------------------------------|
D|---/12--------------------------|---/12--------------------------| play
A|--------------------------------|--------------------------------|  x4
D|0-----------0---5-3-3-0-3-5-7---|0-----------0---5-3-3-0-3-5-0---|


[Outro (4:23)]

  1 e + a 2 e + a 3 e + a 4 e + a  1 e + a 2 e + a 3 e + a 4 e + a
G|--------------------------------|--------------------------------| play x6,
D|---/12--------------------------|---/12--------------------------| sixth time
A|--------------------------------|--------------------------------| hold last note
D|0-----------0---5-3-3-0-3-5-7---|0-----------0---5-3-3-0-3-5-0---|


[Ending (5:02)]

  1 2 3 4
G|-------||
D|-------|| play
A|-------||  x1
D|0------||

            
Submit corrections


        Gravel Road lessons Hard to play? Try these video lessons and learn fast Gravel Road lessons
        
↑ Back to top | Tablatures and chords for acoustic guitar and electric guitar, ukulele, drums are parodies/interpretations of the original songs. You may use it for private study, scholarship, research or language learning purposes only