» » »

Clutch - Gimme The Keys Tabs

Artists:  A B C D E F G H I J K L M N O P Q R S T U V W X Y Z # 

Gimme The Keys Tabs

(ver. 1) Click to play this song!
Clutch
 Rating:
4.4/5 (5 votes)

 Gimme The Keys lessons Tabs too difficult? Try these video lessons and learn fast
 
                Intro]

e|-------------------3-------|
B|--3---3---6---3---------3--|
G|---------------------------|
D|---------------------------|
A|---------------------------|
D|---------------------------|

[Verse]
    A5                  A5                  A5                  E5      G5
e|-------------------|-------------------|-------------------|--0----------------|
B|-------------------|-------------------|-------------------|-------------------|
G|-------------------|-------------------|-------------------|----------0--------|
D|--7----------------|--7----------------|--7----------------|-------------------|
A|--7----------------|--7----------------|--7----------------|-------------------|
D|--7----------------|--7----------------|--7----------------|-------------------|

    A5                  A5                  A5                  E5      G5
e|-------------------|-------------------|-------------------|--0----------------|
B|-------------------|-------------------|-------------------|-------------------|
G|-------------------|-------------------|-------------------|----------0--------|
D|--7----------------|--7----------------|--7----------------|-------------------|
A|--7----------------|--7----------------|--7----------------|-------------------|
D|--7----------------|--7----------------|--7----------------|-------------------|

    A5                  A5                  A5                  E5      G5
e|-------------------|-------------------|-------------------|--0----------------|
B|-------------------|-------------------|-------------------|-------------------|
G|-------------------|-------------------|-------------------|----------0--------|
D|--7----------------|--7----------------|--7----------------|-------------------|
A|--7----------------|--7----------------|--7----------------|-------------------|
D|--7----------------|--7----------------|--7----------------|-------------------|

    A5                  A5                  A5                  E5      G5
e|-------------------|-------------------|-------------------|--0----------------|
B|-------------------|-------------------|-------------------|-------------------|
G|-------------------|-------------------|-------------------|----------0--------|
D|--7----------------|--7----------------|--7----------------|-------------------|
A|--7----------------|--7----------------|--7----------------|-------------------|
D|--7----------------|--7----------------|--7----------------|-------------------|

[Chorus]

e|------------------------------------|------------------------------------|
B|------------------------------------|------------------------------------|
G|------------------------------------|------------------------------------|
D|------------------------------------|------------------------------------|
A|------------------------------------|------------------------------------|
D|--0--15-x-15-x-15-12--12-12-10--10--|---0--15-x-15-x-15-12--12-12-10--5--|


e|------------------------------------|------------------------------------|
B|------------------------------------|------------------------------------|
G|------------------------------------|------------------------------------|
D|------------------------------------|------------------------------------|
A|------------------------------------|------------------------------------|
D|--0--15-x-15-x-15-12--12-12-10--10--|---0--15-x-15-x-15-12--12-12--3--5--|

[Verse]
    A5                  A5                  A5                  E5      G5
e|-------------------|-------------------|-------------------|--0----------------|
B|-------------------|-------------------|-------------------|-------------------|
G|-------------------|-------------------|-------------------|----------0--------|
D|--7----------------|--7----------------|--7----------------|-------------------|
A|--7----------------|--7----------------|--7----------------|-------------------|
D|--7----------------|--7----------------|--7----------------|-------------------|

    A5                  A5                  A5                  E5      G5
e|-------------------|-------------------|-------------------|--0----------------|
B|-------------------|-------------------|-------------------|-------------------|
G|-------------------|-------------------|-------------------|----------0--------|
D|--7----------------|--7----------------|--7----------------|-------------------|
A|--7----------------|--7----------------|--7----------------|-------------------|
D|--7----------------|--7----------------|--7----------------|-------------------|

    A5                  A5                  A5                  E5      G5
e|-------------------|-------------------|-------------------|--0----------------|
B|-------------------|-------------------|-------------------|-------------------|
G|-------------------|-------------------|-------------------|----------0--------|
D|--7----------------|--7----------------|--7----------------|-------------------|
A|--7----------------|--7----------------|--7----------------|-------------------|
D|--7----------------|--7----------------|--7----------------|-------------------|

    A5                  A5                  A5                  E5      G5
e|-------------------|-------------------|-------------------|--0----------------|
B|-------------------|-------------------|-------------------|-------------------|
G|-------------------|-------------------|-------------------|----------0--------|
D|--7----------------|--7----------------|--7----------------|-------------------|
A|--7----------------|--7----------------|--7----------------|-------------------|
D|--7----------------|--7----------------|--7----------------|-------------------|

[Chorus]

e|------------------------------------|------------------------------------|
B|------------------------------------|------------------------------------|
G|------------------------------------|------------------------------------|
D|------------------------------------|------------------------------------|
A|------------------------------------|------------------------------------|
D|--0--15-x-15-x-15-12--12-12-10--10--|---0--15-x-15-x-15-12--12-12-10--5--|


e|------------------------------------|------------------------------------|
B|------------------------------------|------------------------------------|
G|------------------------------------|------------------------------------|
D|------------------------------------|------------------------------------|
A|------------------------------------|------------------------------------|
D|--0--15-x-15-x-15-12--12-12-10--10--|---0--15-x-15-x-15-12--12-12--3--5--|

1'45

e|------------------------------------|------------------------------------|
B|------------------------------------|------------------------------------|
G|------------------------------------|------------------------------------|
D|------------------------------------|------------------------------------|
A|--0--15-x-15-x-15-12--12-12-10--10--|---0--15-x-15-x-15-12--12-12-10--5--|
D|------------------------------------|------------------------------------|

e|------------------------------------|------------------------------------|
B|------------------------------------|------------------------------------|
G|------------------------------------|------------------------------------|
D|------------------------------------|------------------------------------|
A|------------------------------------|------------------------------------|
D|--0--15-x-15-x-15-12--12-12-10--10--|---0--15-x-15-x-15-12--12-12-10--5--|


[Bridge]

    A5           F5     A5           F5     A5           F5     F5     G5
e|-------------------|-------------------|-------------------|-------------------|
B|-------------------|-------------------|-------------------|-------------------|
G|-------------------|-------------------|-------------------|-------------------|
D|--7----7-------3---|--7----7-------3---|--7----8------10---|--3------5---------|
A|--7----7-------3---|--7----7-------3---|--7----8------10---|--3------5---------|
D|--7----7-------3---|--7----7-------3---|--7----8------10---|--3------5---------|

    A5           F5     A5           F5     A5           F5     F5     G5
e|-------------------|-------------------|-------------------|-------------------|
B|-------------------|-------------------|-------------------|-------------------|
G|-------------------|-------------------|-------------------|-------------------|
D|--7----7-------3---|--7----7-------3---|--7----8------10---|--3------5---------|
A|--7----7-------3---|--7----7-------3---|--7----8------10---|--3------5---------|
D|--7----7-------3---|--7----7-------3---|--7----8------10---|--3------5---------|

    D5
e|-------------------|------------------|---------------------------|
B|--3----------------|------------------|---------------------------|
G|--2----------------|------------------|--12--14--17-14--12h10-----|
D|--0----------------|------------------|-----------------------12--|
A|--0----------------|------------------|---------------------------|
D|--0----------------|------------------|---------------------------|

    D5
e|-------------------|------------------|---------------------------|
B|--3----------------|------------------|---------------------------|
G|--2----------------|------------------|--12--14--17-14--12h10-----|
D|--0----------------|------------------|-----------------------12--|
A|--0----------------|------------------|---------------------------|
D|--0----------------|------------------|---------------------------|

    D5
e|--------------3-----5-----|
B|--3--3--6--3-----3-----1--|
G|--------------------------|
D|--------------------------|
A|--------------------------|
D|--------------------------| x8

[Verse]
    A5                  A5                  A5                  E5      G5
e|-------------------|-------------------|-------------------|--0----------------|
B|-------------------|-------------------|-------------------|-------------------|
G|-------------------|-------------------|-------------------|----------0--------|
D|--7----------------|--7----------------|--7----------------|-------------------|
A|--7----------------|--7----------------|--7----------------|-------------------|
D|--7----------------|--7----------------|--7----------------|-------------------|

    A5                  A5                  A5                  E5      G5
e|-------------------|-------------------|-------------------|--0----------------|
B|-------------------|-------------------|-------------------|-------------------|
G|-------------------|-------------------|-------------------|----------0--------|
D|--7----------------|--7----------------|--7----------------|-------------------|
A|--7----------------|--7----------------|--7----------------|-------------------|
D|--7----------------|--7----------------|--7----------------|-------------------|

    A5                  A5                  A5                  E5      G5
e|-------------------|-------------------|-------------------|--0----------------|
B|-------------------|-------------------|-------------------|-------------------|
G|-------------------|-------------------|-------------------|----------0--------|
D|--7----------------|--7----------------|--7----------------|-------------------|
A|--7----------------|--7----------------|--7----------------|-------------------|
D|--7----------------|--7----------------|--7----------------|-------------------|

    A5                  A5                  A5                  E5      G5
e|-------------------|-------------------|-------------------|--0----------------|
B|-------------------|-------------------|-------------------|-------------------|
G|-------------------|-------------------|-------------------|----------0--------|
D|--7----------------|--7----------------|--7----------------|-------------------|
A|--7----------------|--7----------------|--7----------------|-------------------|
D|--7----------------|--7----------------|--7----------------|-------------------|

[Chorus]

e|------------------------------------|------------------------------------|
B|------------------------------------|------------------------------------|
G|------------------------------------|------------------------------------|
D|------------------------------------|------------------------------------|
A|------------------------------------|------------------------------------|
D|--0--15-x-15-x-15-12--12-12-10--10--|---0--15-x-15-x-15-12--12-12-10--5--|

e|------------------------------------|------------------------------------|
B|------------------------------------|------------------------------------|
G|------------------------------------|------------------------------------|
D|------------------------------------|------------------------------------|
A|------------------------------------|------------------------------------|
D|--0--15-x-15-x-15-12--12-12-10--10--|---0--15-x-15-x-15-12--12-12--3--5--|

[Chorus]

e|------------------------------------|------------------------------------|
B|------------------------------------|------------------------------------|
G|------------------------------------|------------------------------------|
D|------------------------------------|------------------------------------|
A|------------------------------------|------------------------------------|
D|--0--15-x-15-x-15-12--12-12-10--10--|---0--15-x-15-x-15-12--12-12-10--5--|


e|------------------------------------|------------------------------------|
B|------------------------------------|------------------------------------|
G|------------------------------------|------------------------------------|
D|------------------------------------|------------------------------------|
A|------------------------------------|------------------------------------|
D|--0--15-x-15-x-15-12--12-12-10--10--|---0--15-x-15-x-15-12--12-12--3--5--|

e|------------------------------------|------------------------------------|
B|------------------------------------|------------------------------------|
G|------------------------------------|------------------------------------|
D|------------------------------------|------------------------------------|
A|--0--15-x-15-x-15-12--12-12-10--10--|---0--15-x-15-x-15-12--12-12-10--5--|
D|------------------------------------|------------------------------------|

e|------------------------------------|------------------------------------|
B|------------------------------------|------------------------------------|
G|------------------------------------|------------------------------------|
D|------------------------------------|------------------------------------|
A|------------------------------------|------------------------------------|
D|--0--15-x-15-x-15-12--12-12-10--10--|---0--15-x-15-x-15-12--12-12-10--5--|

[Outro]

e|--------------------|-------------------|--------------------|--------------------|
B|--------------------|-------------------|--------------------|--------------------|
G|--------------------|-------------------|--------------------|--------------------|
D|--------------------|-------------------|--------------------|--------------------|
A|---------5----------|-------------------|--------------------|--------------------|
D|--0-0-0-------------|--0-0-0--3---------|--0-0-0--5----------|--0-0-0--3b---------|

    D5
e|--------------------------|
B|--------------------------|
G|--------------------------|
D|--------------------------|
A|--------------------------|
D|--0-----------------------|
            
Submit corrections


        Gimme The Keys lessons Hard to play? Try these video lessons and learn fast Gimme The Keys lessons
        
↑ Back to top | Tablatures and chords for acoustic guitar and electric guitar, ukulele, drums are parodies/interpretations of the original songs. You may use it for private study, scholarship, research or language learning purposes only