» » »

Clutch - Firebirds Tabs

Artists:  A B C D E F G H I J K L M N O P Q R S T U V W X Y Z # 

Firebirds Tabs

(ver. 1) Click to play this song!
Clutch
 Rating:
2.7/5 (20 votes)

 Firebirds  lessons Tabs too difficult? Try these video lessons and learn fast
 
                INTRO
|-----------------|-----------------|
|-----------------|-----------6-6-6-|
|---------5-----5-|-----------5-5-5-|
|---------4-----4-|-----------4-4-4-|
|---------5-----5-|-----------5-5-5-|
|-0-0-0-0---0-0---|-0-0-0-0-0-------|


                  VERSE
|---------------||------------------|----------------------||
|---------------||o-----------------|---------------------o||
|---------------||------------------|----------------------||
|---------------||------------------|----------------------||
|---------------||o---------5-5-5-3-|-(3)-5---------------o||
|-----5p3p0-3-0-||--3-0-0-0---------|-------0-0-5p3p0-3-0--||


|-----------------|-------------|
|-----------------|-------------|
|-----------------|-------------|
|-----------------|----------3--|
|-----------------|-3--4--5-----|
|-3-0-0-0-0-0-0-0-|-------------|


CHORUS
|---------------|----------------|----------------|-------------|
|---------------|----------------|----------------|-------------|
|---------------|----------------|----------------|-------------|
|---------------|----------------|----------------|----------3--|
|---------------|----------------|-3--3-3-3-3-3-3-|-3--4--5-----|
|-0--0-0-0-0-2--|-3--3-3-3-3-3-3-|----------------|-------------|


|---------------|----------------|----------------|--------------|
|---------------|----------------|----------------|--------------|
|---------------|----------------|----------------|--------------|
|---------------|----------------|----------------|--------------|
|---------------|----------------|-3--3-3-3-3-3-3-|--------------|
|-0--0-0-0-0-2--|-3--3-3-3-3-3-3-|----------------|-6--5--5-3-0--|


SOLO (with wah and octave)
|----------------|----------------|-----------|----------|
|--3---3-----3---|-3---3-3-----3--|--3-3-3----|----------|
|--5b7---5b7-5b7-|-5b7-5-3-----3--|--3-3-3--5-|-5-3------|
|----------------|---------3-5----|--3-3-3--5-|-5-3-5----|
|----------------|----------------|-----------|-----5----|
|----------------|----------------|-----------|----------|


|-------------|-----------|---------------|-----------------------|
|-------------|-----------|------6-5------|-3-5-6-5---------------|
|----3-3---3--|-(3)-3-3S5-|--5S7------5-3-|----------3------------|
|----3-3---3--|-(3)-3-3S5-|---------------|------------5-5p3p0----|
|--5-----5----|-----------|---------------|-----------------------|
|-------------|-----------|---------------|-----------------------|


LAST RIFF
|----------|--------------|---------|
|----------|--------------|---------|
|----------|--------------|---------|
|----------|-5--6--7--10--|-10------|
|----------|-3--4--5---8--|--8------|
|-0--------|--------------|----0----|            
Submit corrections


        Firebirds  lessons Hard to play? Try these video lessons and learn fast Firebirds  lessons
        
↑ Back to top | Tablatures and chords for acoustic guitar and electric guitar, ukulele, drums are parodies/interpretations of the original songs. You may use it for private study, scholarship, research or language learning purposes only