» » »

Clutch - Decapitation Blues Tabs

Artists:  A B C D E F G H I J K L M N O P Q R S T U V W X Y Z # 

Decapitation Blues Tabs

(ver. 1) Click to play this song!
Clutch
 Rating:
4.3/5 (21 vote)

 Decapitation Blues  lessons Tabs too difficult? Try these video lessons and learn fast
 
                 Intro
|------------------------|
|------------------------|
|------------------------|
|-2-3-3-3-2---2----------|
|-----------5---5-3-5----|
|------------------------|


   Verse
||--------------------|-------------------||--------------------|----------------------||
||o-------------------|-------------------||--------------------|---------------------o||
||--5--5--5--5--5--5--|-5--5--5--5--5--5--||--------------------|----------------------||
||--5--5--5--5--5--5--|-5--5--5--5--5--5--||--------------------|----------------------||
||o-3--3--3--3--3--3--|-3--3--3--3--3--3--||-3--5---3-3-5-5-5---|-3--5---3-3-5--------o||
||--------------------|-------------------||--------------------|--------------0-0-----||

Fourth time end with
|--------------------|---------------|
|--------------------|---------------|
|--------------------|---------------|
|--------------------|---------------|
|-3--5---3-3-5-5-5---|-3-5-----------|
|--------------------|---------------|


 Chorus
|-------------------|-----------------------|-------------------|--------------------------|
|-------------------|-----------------------|-------------------|--------------------------|
|-------------------|-----------------------|-------------------|--------------------------|
|-------------------|-----------------------|-------------------|--------------------------|
|-----0--1-----1--3-|-(3)----3--5---5-5-3-0-|-----1--0-----3--1-|-(1)----5--5---5-5-3-0----|
|-0----------0------|------0----------------|-0----------0------|------0-------------------|


|-------------------|-----------------------|-------------------|-------------|
|-------------------|-----------------------|-------------------|-------------|
|-------------------|-----------------------|-------------------|-------------|
|-------------------|-----------------------|-------------------|-------------|
|-----0--1-----1--3-|-(3)----3--5---5-5-3-0-|-----1--0-----3--1-|-------------|
|-0----------0------|------0----------------|-0----------0------|-0------3----|


   Bridge                    x4                           x3
||---------------------------||  ||-----------------------||------------------|
||o------10--10---10-10-8---o||  ||o------9--9---9-9-7---o||----9-------------|
||------------------------9--||  ||--------------------8--||------------------|
||---------------------------||  ||-----------------------||------------------|
||o-------------------------o||  ||o---------------------o||-------4----------|
||--7--7---------------------||  ||--6--6-----------------||-6--------6--8----|

                             x4                             x4
||---------------------------||  ||-------------------------||
||o------10--10---10-10-8---o||  ||o------9--9---9-9-7-----o||
||------------------------9--||  ||--------------------8----||
||---------------------------||  ||-------------------------||
||o-------------------------o||  ||o-----------------------o||
||--7--7---------------------||  ||--6--6-------------------||


|---------------------|----------------------|
|------8--8---8-8-6---|----------------------|
|-------------------7-|----------------------|
|---------------------|----------------------|
|---------------------|----------------------|
|-5--5----------------|-4--4--4--10--10--10--|

            
Submit corrections


        Decapitation Blues  lessons Hard to play? Try these video lessons and learn fast Decapitation Blues  lessons
        
↑ Back to top | Tablatures and chords for acoustic guitar and electric guitar, ukulele, drums are parodies/interpretations of the original songs. You may use it for private study, scholarship, research or language learning purposes only