» » »

Clutch - Cyborg Bette Tabs

Artists:  A B C D E F G H I J K L M N O P Q R S T U V W X Y Z # 

Cyborg Bette Tabs

(ver. 1) Click to play this song!
Clutch
 Rating:
4.4/5 (14 votes)

 Cyborg Bette  lessons Tabs too difficult? Try these video lessons and learn fast
 
                [Intro] x2

e|---------------------------------------------------------------------------|
B|---------------------------------------------------------------------------|
G|---------------------------------------------------------------------------|
D|---------------------------------------------------------------------------|
A|-----------------0-3-0-5-0-------------------------------------------------|
D|--0--0-3b--0--0------------3-----------------------------------------------|
                                                                                
e|---------------------------------------------------------------------------|
B|---------------------------------------------------------------------------|
G|---------------------------------------------------------------------------|
D|---------------------------------------------------------------------------|
A|-----------------0-3-0-5-0-------------------------------------------------|
D|--0--0-3b--0--0------------3-----------------------------------------------|


[Verse] x2

e|---------------------------------------------------------------------------|
B|---------------------------------------------------------------------------|
G|---------------------------------------------------------------------------|
D|---------------------------------------------------------------------------|
A|-----------------0-3-0-5-0-------------------------------------------------|
D|--0--0-3b-0----------------3-----------------------------------------------|
                                                                                 
e|---------------------------------------------------------------------------|
B|---------------------------------------------------------------------------|
G|---------------------------------------------------------------------------|
D|---------------------------------------------------------------------------|
A|-----------------0-3-0-5-0-------------------------------------------------|
D|--0--0-3b-0----------------3-----------------------------------------------|


[Chorus]

e|---------------------------------------------------------------------------|
B|---------------------------------------------------------------------------|
G|---------------------------------------------------------------------------|  Repeat this section 2x
D|--5--5-5-5-5-5--5-5-5-5----------------------------------------------------|
A|--3--3-3-3-3-3--3-3-3-3-5--5-5-5-5-5--5-5-5-5-0----------------------------|
D|------------------------5--5-5-5-5-5--5-5-5-5-0----------------------------|

e|---------------------------------------------------------------------------|
B|---------------------------------------------------------------------------|
G|---------------------------------------------------------------------------|
D|--10--1010101010-1010101012--12-12-12-12-12--12-12-12-12-------------------|
A|--8---8-8-8-8-8--8-8-8-8-10--10-10-10-10-10--10-10-10-10-------------------|
D|---------------------------------------------------------------------------|


[Interlude] part 1 repeat 2x                                                            

e|---------------------------------------------------------------------------|     
B|---------------------------------------------------------------------------|     
G|---------------------------------------------------------------------------|     
D|---------------------------------------------------------------------------|  Repeat 2x   
A|--10--12-12--12--12-15-15--10--12-12--12--12-12-12-------------------------|
D|--10--12-12--12--12-15-15--10--12-12--12--12-12-12-------------------------|
                                                                               
e|---------------------------------------------------------------------------|
B|---------------------------------------------------------------------------|
G|---------------------------------------------------------------------------|
D|-10--101010-10-101010-10-101010-10-101010----------------------------------|  Repeat 2x
A|--8--8-8-8--8--8-8-8--8--8-8-8--8--8-8-8-----------------------------------|
D|--8--8-8-8--8--8-8-8--8--8-8-8--8--8-8-8-----------------------------------|


[Interlude] part 2
e|---------------------------------------------------------------------------|
B|---------------------------------------------------------------------------|
G|---------------------------------------------------------------------------|
D|---------------------------------------------------------------------------|
A|--5--7-7--7--7-10-10--5--7-7--7--7-7-7-------------------------------------|
D|--5--7-7--7--7-10-10--5--7-7--7--7-7-7-------------------------------------|

e|---------------------------------------------------------------------------|
B|---------------------------------------------------------------------------|
G|---------------------------------------------------------------------------|
D|---------------------------------------------------------------------------|
A|--10--10-10-10-10-10--10-10-10-10-10--10-10-10-10-10--10-10--12\-----------|
E|--10--10-10-10-10-10--10-10-10-10-10--10-10-10-10-10--10-10--12\-----------|
            
Submit corrections


        Cyborg Bette  lessons Hard to play? Try these video lessons and learn fast Cyborg Bette  lessons
        
↑ Back to top | Tablatures and chords for acoustic guitar and electric guitar, ukulele, drums are parodies/interpretations of the original songs. You may use it for private study, scholarship, research or language learning purposes only