» » »

Clutch - Crucial Velocity Tabs

Artists:  A B C D E F G H I J K L M N O P Q R S T U V W X Y Z # 

Crucial Velocity Tabs

(ver. 1) Click to play this song!
Clutch
 Rating:
4.1/5 (31 vote)

 Crucial Velocity lessons Tabs too difficult? Try these video lessons and learn fast
 
                [Verse]
e|----------------------------------------------------------------|
B|----------------------------------------------------------------|
G|--2-------------------------------------------------------------|
D|--0--------6--------0--------6----------------------------------| X2
A|--0--------6--------0--------6------------------3-5~--3-5~------|
D|--0--------6--------0--------6----5--3--0-3--0------------------|

[Chorus]
e|------------------------------------------------------------------------------------------|
B|------------------------------------------------------------------------------------------|
G|-----------------------------------------------------------------------5--5--5--5--5------|
D|--0--0--0--0--0--0------0--0--0--0--0--0------0--0--0--0--0--0---------5--5--5--5--5------| x4
A|--0--0--0--0--0--0------0--0--0--0--0--0------0--0--0--0--0--0---------3--3--3--3--3------|
D|--0--0--0--0--0--0--3b--0--0--0--0--0--0--3b--0--0--0--0--0--0--3b--0-----------------3b--|

[Bridge]
e|-------------------------------------------------------------------|
B|-------------------------------------------------------------------|
G|--7-------------------------7--------------------------------------|
D|--7--------------3----------7--------------------------------------| X2
A|--5--------3--5-----5~------5----------------------3-5~--3-5~------|
D|-------------------------------------5--3--0-3--0------------------|

[Verse]
e|----------------------------------------------------------------|
B|----------------------------------------------------------------|
G|--2-------------------------------------------------------------|
D|--0--------6--------0--------6----------------------------------| 
A|--0--------6--------0--------6------------------3-5~--3-5~------|
D|--0--------6--------0--------6----5--3--0-3--0--------------3b--|

[Chorus]
e|------------------------------------------------------------------------------------------|
B|------------------------------------------------------------------------------------------|
G|-----------------------------------------------------------------------5--5--5--5--5------|
D|--0--0--0--0--0--0------0--0--0--0--0--0------0--0--0--0--0--0---------5--5--5--5--5------| x4
A|--0--0--0--0--0--0------0--0--0--0--0--0------0--0--0--0--0--0---------3--3--3--3--3------|
D|--0--0--0--0--0--0--3b--0--0--0--0--0--0--3b--0--0--0--0--0--0--3b--0-----------------3b--|

[Solo]
e|-----------------------------------------------------------------------------------------------------|
B|-----------------------------------------------------------------------------------------------------|
G|--14--10---12------------10b--------------10b--------14---10---------12--------------10b-----10-12---|
D|---------------12---12--------12---12-12-------12~-----------------------12---12-12------12~---------|
A|-----------------------------------------------------------------------------------------------------|
D|-----------------------------------------------------------------------------------------------------|

e|-----------------------------------------------------------------------------------------------------------|
B|--12b-12-12b-12-12b---12-12b-12-12b-12-12------------------------------------------------------------------|
G|--12b-12-12b-12-12b---12-12b-12-12b-12-12--10---14-10----9--9b------------9b--9b--9b--9b--9b--10---12------|
D|---------------------------------------------------------------12---12-12----------------------------------|
A|-----------------------------------------------------------------------------------------------------------|
D|-----------------------------------------------------------------------------------------------------------|

e|------------------------------------------------------------------------------------|
B|--10----13---15-----15--------------------------------------------------------------|
G|---------------------------------------------7--------------------------------------|
D|----------------------------------3----------7--------------------------------------| 
A|----------------------------3--5-----5~------5----------------------3-5~--3-5~------|
D|------------------------------------------------------5--3--0-3--0------------------|

[Bridge]
e|-------------------------------------------------------------------|
B|-------------------------------------------------------------------|
G|--7-------------------------7--------------------------------------|
D|--7--------------3----------7--------------------------------------| 
A|--5--------3--5-----5~------5----------------------3-5~--3-5~------|
D|-------------------------------------5--3--0-3--0------------------|

[Chorus]
e|------------------------------------------------------------------------------------------|
B|------------------------------------------------------------------------------------------|
G|-----------------------------------------------------------------------5--5--5--5--5------|
D|--0--0--0--0--0--0------0--0--0--0--0--0------0--0--0--0--0--0---------5--5--5--5--5------| x4
A|--0--0--0--0--0--0------0--0--0--0--0--0------0--0--0--0--0--0---------3--3--3--3--3------|
D|--0--0--0--0--0--0--3b--0--0--0--0--0--0--3b--0--0--0--0--0--0--3b--0-----------------3b--|

[Outro]
e|------------------------------------------------------------------------------------------|
B|------------------------------------------------------------------------------------------|
G|-----------5--5--5--5--5---7--------------------------------------------------------------|
D|-----------5--5--5--5--5---7--------------------------------------------------------------| 
A|-----------3--3--3--3--3---5-------------------------3---------5~---------3~---------5----|
D|----3--0-------------------------------5--3--0-3--0---------------------------------------|

            
Submit corrections


        Crucial Velocity lessons Hard to play? Try these video lessons and learn fast Crucial Velocity lessons
        
↑ Back to top | Tablatures and chords for acoustic guitar and electric guitar, ukulele, drums are parodies/interpretations of the original songs. You may use it for private study, scholarship, research or language learning purposes only