» » »

Clutch - Bottoms Up Socrates Tabs

Artists:  A B C D E F G H I J K L M N O P Q R S T U V W X Y Z # 

Bottoms Up Socrates Tabs

(ver. 1) Click to play this song!
Clutch
 Rating:
2.2/5 (27 votes)

 Bottoms Up Socrates  lessons Tabs too difficult? Try these video lessons and learn fast
 
                Tuning: Standard

e|---------------------------------------------------------------------------|
B|---------------------------------------------------------------------------|
G|---------------------------------------------------------------------------|
D|---------------------------------------------------------------------------|
A|--7-----10---12---------10—10--12------12--------------7-10--12----10-12---|
E|------------------12--------------12--------12---12-------------12---------|

e|---------------------------------------------------------------------------|
B|---------------------------------------------------------------------------|
G|---------------------------------------------------------------------------|
D|---------------------------------------------------------------------------|
A|---14----------------------------------------------------------------------|
E|12-------------------------------------------------------------------------|

e|---------------------------------------------------------------------------|
B|---------------------------------------------------------------------------|
G|---------------------------------------------------------------------------|
D|---------------------------------------------------------------------------|
A|--7-----10---12---------10—10--12------12--------------7-10--12----10-12---|
E|------------------12--------------12--------12---12-------------12---------|

Street urchins? saints in a glass box and march em' around the block

e|---------------------------------------------------------------------------|
B|---------------------------------------------------------------------------|
G|---------------------------------------------------------------------------|
D|---------------------------------------------------------------------------|
A|---14----------------------------------------------------------------------|
E|12-------------------------------------------------------------------------|


e|---------------------------------------------------------------------------|
B|---------------------------------------------------------------------------|
G|---------------------------------------------------------------------------|
D|------------------------10-------------------------------------------------|
A|------------------10h12-----12p10h12—-10-10-12-12-14--------12p10---------|
E|--------------10----------------------8--8--10-10-12-----10------12p10h12--|

Words of a mad man
e|---------------------------------------------------------------------------|
B|---------------------------------------------------------------------------|
G|---------------------------------------------------------------------------|
D|---------------------------------------------------------------------------|
A|-10-10--12-12-14-----------------------------------------------------------|
E|-8- 8- 10- 10-12-----------------------------------------------------------|
Seek no bliss

e|---------------------------------------------------------------------------|
B|---------------------------------------------------------------------------|
G|---------------------------------------------------------------------------|
D|---------------------------------------------------------------------------|
A|--7-----10---12---------10—10--12------12--------------7-10--12----10-12---|
E|------------------12--------------12--------12---12-------------12---------|
Mason jars of petroleum







e|---------------------------------------------------------------------------|
B|---------------------------------------------------------------------------|
G|---------------------------------------------------------------------------|
D|----------------------7--5------------------------------5------------------|
A|----14-----------------------7--5------------------5-8-9--------------------|
E|-12----------------------------------8-5-3------5--9-------------------------|
Exactly what they'll say:


e|---------------------------------------------------------------------------|
B|---------------------------------------------------------------------------|
G|---------------------------------------------------------------------------|
D|---------------------------------------------------------------------------|
A|--7--10--12-----10--12------14---------------------------------------------|
E|-------------12---------12-------------------------------------------------|
And when they? 

e|---------------------------------------------------------------------------|
B|---------------------------------------------------------------------------|
G|---------------------------------------------------------------------------|
D|------------------------10-------------------------------------------------|
A|------------------10h12-----12p10h12—--10-10-12-12-14--------12p10---------|
E|--------------10----------------------8--8--10-10-12-----10------12p10h12--|
Hanging on the


e|---------------------------------------------------------------------------|
B|---------------------------------------------------------------------------|
G|---------------------------------------------------------------------------|
D|---------------------------------------------------------------------------|
A|--10-10-12-12-14-------------------------------------------------------|
l
E|--8--8--10—10-12----------------------------------------------------------|

e|---------------------------------------------------------------------------|
B|---------------------------------------------------------------------------|
G|---------------------------------------------------------------------------|
D|------------------------10-------------------------------------------------|
A|------------------10h12-----12p10h12—--10-10-12-12-14--------12p10---------|
E|--------------10----------------------8--8--10-10-12-----10------12p10h12--|
No use for the poet


e|---------------------------------------------------------------------------|
B|---------------------------------------------------------------------------|
G|---------------------------------------------------------------------------|
D|---------------------------------------------------------------------------|
A|--10-10-12-12-14-------------------------------------------------------|
l
E|--8--8--10—10-12----------------------------------------------------------|

e|---------------------------------------------------------------------------|
B|---------------------------------------------------------------------------|
G|---------------------------------------------------------------------------|
D|---------------5-------------5-------------5--------------5----------------|
A|---------5h7h8---------5h7h8---------5h7h8----------5h7h8------------------|
E|----5h8------------5h8-----------5h8------------5h8------------------------|

e|---------------------------------------------------------------------------|
B|---------------------------------------------------------------------------|
G|---------------------------------------------------------------------------|
D|---------------------------------------------------------------------------|
A|-7p5-----------8p5---------------7p5-----------8p5-------------------------|
E|------8p5h8p5-------8p5h8p5-----------8p5h8p5--------8p5h8p5---------------|
X-ray vision



e|---------------------------------------------------------------------------|
B|---------------------------------------------------------------------------|
G|---------------------------------------------------------------------------|
D|---------------------------------------------------------------------------|
A|--7p5---------8p5------------7p5---------8p5--------------------------------|
E|------8p5h8p5--------8p5h8p5-----8p5h8p5-------8p5h8p5-------5 ~ ----------
|
e|---------------------------------------------------------------------------|
Hemlock straight up

e|--(8-7-5)—8p7p5-7b-------(8-7-5)—-7B-7p5----5b---5b--5---5b---5b---5b------|    TRILL                  TRILL
B|---------------------------------------------------------------------------|
G|---------------------------------------------------------------------------|
D|---------------------------------------------------------------------------|
A|---------------------------------------------------------------------------|
E|---------------------------------------------------------------------------|SOLO

e|---------------------------------------------------------------------------|
B|---------------------------------------------------------------------------|
G|---------------------------------------------------------------------------|
D|---------------------------------------------------------------------------|
A|---------------------------------------------------------------------------|
E|--6p5p3—5b--5p3h5p3--------------------------------------------------------|
(SOLO)
e|---------------------------------------------------------------------------|
B|---------------------------------------------------------------------------|
G|---------------------------------------------------------------------------|
D|---------------5-------------5-------------5--------------5----------------|
A|---------5h7h8---------5h7h8---------5h7h8----------5h7h8------------------|
E|----5h8------------5h8-----------5h8------------5h8------------------------|
(SOLO)

e|---------------------------------------------------------------------------|
B|---------------------------------------------------------------------------|
G|---------------------------------------------------------------------------|
D|---------------------------------------------------------------------------|
A|------5~ --7~ -------------------------------------------------------------|
E|--5~ ----------------------------------------------------------------------|

e|---------------------------------------------------------------------------|
B|---------------------------------------------------------------------------|
G|---------------------------------------------------------------------------|
D|------------------------10-------------------------------------------------|
A|------------------10h12-----12p10h12—--10-10-12-12-14--------12p10---------|
E|--------------10----------------------8--8--10-10-12-----10------12p10h12--|
Hanging on the words

e|---------------------------------------------------------------------------|
B|---------------------------------------------------------------------------|
G|---------------------------------------------------------------------------|
D|---------------------------------------------------------------------------|
A|-10-10--12-12-14-----------------------------------------------------------|
E|-8- 8- 10- 10-12-----------------------------------------------------------|
In the abyss 

e|---------------------------------------------------------------------------|
B|---------------------------------------------------------------------------|
G|---------------------------------------------------------------------------|
D|------------------------10-------------------------------------------------|
A|------------------10h12-----12p10h12—--10-10-12-12-14--------12p10---------|
E|--------------10----------------------8--8--10-10-12-----10------12p10h12--|

No use for the poet


e|---------------------------------------------------------------------------|
B|---------------------------------------------------------------------------|
G|---------------------------------------------------------------------------|
D|---------------------------------------------------------------------------|
A|-10-10--12-12-14-----------------------------------------------------------|
E|-8- 8- 10- 10-12-----------------------------------------------------------|
Seek no bliss

e|---------------------------------------------------------------------------|
B|---------------------------------------------------------------------------|
G|---------------------------------------------------------------------------|
D|---------------------------------------------------------------------------|
A|-7p5-----------8p5---------------7p5-----------8p5-------------------------|
E|------8p5h8p5-------8p5h8p5-----------8p5h8p5--------8p5h8p5---------------|
X-ray vision

e|---------------------------------------------------------------------------|
B|---------------------------------------------------------------------------|
G|---------------------------------------------------------------------------|
D|---------------------------------------------------------------------------|
A|-7p5-----------8p5---------------7p5-----------8p5-------------------------|
E|------8p5h8p5-------8p5h8p5-----------8p5h8p5--------8p5h8p5---------------|
So bottoms up

e|---------------------------------------------------------------------------|
B|---------------------------------------------------------------------------|
G|---------------------------------------------------------------------------|
D|---------------------------------------------------------------------------|
A|-7p5-----------8p5---------------7p5-----------8p5-------------------------|
E|------8p5h8p5-------8p5h8p5-----------8p5h8p5--------8p5h8p5---------------|

Xray 
e|---------------------------------------------------------------------------|
B|---------------------------------------------------------------------------|
G|---------------------------------------------------------------------------|
D|---------------------------------------------------------------------------|
A|-7p5-----------8p5---------------7p5-----------8p5-------------------------|
E|------8p5h8p5-------8p5h8p5-----------8p5h8p5--------8p5h8p5------5-3-0-----|
So bottoms up            
Submit corrections


        Bottoms Up Socrates  lessons Hard to play? Try these video lessons and learn fast Bottoms Up Socrates  lessons
        
↑ Back to top | Tablatures and chords for acoustic guitar and electric guitar, ukulele, drums are parodies/interpretations of the original songs. You may use it for private study, scholarship, research or language learning purposes only