» » »

Clutch - Big News Bass

Artists:  A B C D E F G H I J K L M N O P Q R S T U V W X Y Z # 

Big News Bass

(ver. 1) Click to play this song!
Clutch
 Rating:
4.4/5 (11 votes)

 Big News lessons Tabs too difficult? Try these video lessons and learn fast
 
                [Intro (0:00)]

  1 e + a 2 e + a 3 e + a 4 e + a       \
G|--------r-------------r---------|      |
D|--------e-------------e---------| play |
A|--------s---6---------s---------|  x3  |
E|6-7-8---t-----------8-t-8-------|      | play
                                         |  x2
  1 e + a 2 e + a 3 e + a 4 e + a        |
G|--------------------------------|      |
D|--------------------------------| play |
A|--------------------------------|  x1  |
E|6---8---0---1-------6---7---8---|     /


[Verse 1 (0:21)]

  1 e + a 2 e + a 3 e + a 4 e + a
G|--------r-----------------------|
D|--------e-----------------------| play
A|--------s---6----------/8---8---|  x8
E|6-7-8---t-----------8-----------|

  1 e + a 2 e + a 3 e + a 4 e + a
G|--------r-----------------------|
D|--------e-----------------------| play
A|--------s---4----------/6---6---|  x4
E|4-5-6---t-----------6-----------|

  1 e + a 2 e + a 3 e + a 4 e + a
G|--------r-----------------------|
D|--------e-----------------------| play
A|--------s---6----------/8---8---|  x8
E|6-7-8---t-----------8-----------|


[Chorus (1:03)]

  1 e + a 2 e + a 3 e + a 4 e + a
G|--------r-------------r---------|
D|--------e-------------e---------| play
A|--------s---6---------s---------|  x3
E|6-7-8---t-----------8-t-8-------|

  1 e + a 2 e + a 3 e + a 4 e + a
G|--------------------------------|
D|--------------------------------| play
A|--------------------------------|  x1
E|8-7-6-----------8-7-6-----------|


[Verse (1:14)]

  1 e + a 2 e + a 3 e + a 4 e + a
G|--------r-----------------------|
D|--------e-----------------------| play
A|--------s---6----------/8---8---|  x8
E|6-7-8---t-----------8-----------|

  1 e + a 2 e + a 3 e + a 4 e + a
G|--------r-----------------------|
D|--------e-----------------------| play
A|--------s---4----------/6---6---|  x4
E|4-5-6---t-----------6-----------|

  1 e + a 2 e + a 3 e + a 4 e + a
G|--------r-----------------------|
D|--------e-----------------------| play
A|--------s---6----------/8---8---|  x8
E|6-7-8---t-----------8-----------|


[Chorus (1:54)]

  1 e + a 2 e + a 3 e + a 4 e + a
G|--------r-------------r---------|
D|--------e-------------e---------| play
A|--------s---6---------s---------|  x3
E|6-7-8---t-----------8-t-8-------|

  1 e + a 2 e + a 3 e + a 4 e + a
G|--------------------------------|
D|--------------------------------| play
A|--------------------------------|  x1
E|6---8---0---1-------6---7---8---|


[Outro (2:04)]

  1 e + a 2 e + a 3 e + a 4 e + a
G|--------r-------------r---------|
D|--------e-------------e---------| play
A|--------s---6---------s---------|  x3
E|6-7-8---t-----------8-t-8-------|

  1 e + a 2 e + a 3 e + a 4 e + a
G|--------------------------------||
D|--------------------------------|| play
A|--------------------------------||  x1
E|6---8---0---1-------4-----------||
             
Submit corrections


        Big News lessons Hard to play? Try these video lessons and learn fast Big News lessons
        
↑ Back to top | Tablatures and chords for acoustic guitar and electric guitar, ukulele, drums are parodies/interpretations of the original songs. You may use it for private study, scholarship, research or language learning purposes only