» » »

Clutch - Behold The Colossus Tabs

Artists:  A B C D E F G H I J K L M N O P Q R S T U V W X Y Z # 

Behold The Colossus Tabs

(ver. 1) Click to play this song!
Clutch
 Rating:
2.7/5 (27 votes)

 Behold The Colossus  lessons Tabs too difficult? Try these video lessons and learn fast
 
                   INTRO
||--------------------------|--------------------------||
||o-------------------------|-------------------------o||
||--------------------------|--------------------------||
||--------------------------|--------------------------||
||o-------------------------|-------------------------o||
||--1-3-3-3-3-3-3-3-3-3-3-3-|-1-3-3-3-3-3-3-3-3-3-3-3--||


|-------------------------|-------------------------|-------------------------|-------------------------|
|-------------------------|-------------------------|-------------------------|-------------------------|
|-------------------------|-------------------------|-------------------------|-------------------------|
|-3-5-5-5-5-5-5-5-5-5-5-5-|-3-5-5-5-5-5-5-5-5-5-5-5-|-3-5-5-5-5-5-5-5-5-5-5-5-|-5-3---------3-----------|
|-------------------------|-------------------------|-------------------------|-----5-4-3-----5-4-3-----|
|-------------------------|-------------------------|-------------------------|-----------6---------6-3-|


  VERSES
|-------------------------|-------------------------|-------------------------|-------------------------|
|-------------------------|-------------------------|-------------------------|-------------------------|
|-------------------------|-------------------------|-------------------------|-------------------------|
|-------------------------|-------------------------|-------------------------|-------------------------|
|-------------------------|-------------------------|-------------------------|-1-----------------------|
|-1-3-3-3-3-3-3-3-3-3-3-3-|-1-3-3-3-3-3-3-3-3-3-3-3-|-1-3-3-3-3-3-3-3-3-3-3-3-|---3-3-3-3-3-3-3-3-3-3-3-|


|---------------|--------------|-------------------------|-------------------------|
|---------------|--------------|-------------------------|-------------------------|
|---------------|--------------|-------------------------|-------------------------|
|-3------3------|-3--3----3----|-------------------------|-------------------------|
|-3------3------|-3--3----3----|-------------------------|-------------------------|
|-1------1------|-1--1----1----|-1-3-3-3-3-3-3-3-3-3-3-3-|-1-3-3-3-3-3-3-3-3-3-3-3-|


|---------------|--------------|-------------------------|-------------------------|
|---------------|--------------|-------------------------|-------------------------|
|---------------|--------------|-------------------------|-------------------------|
|-3------3------|-3--3----3----|-3-5-5-5-5-5-5-5-5-5-5-5-|-5-3---------3-----------|
|-3------3------|-3--3----3----|-------------------------|-----5-4-3-----5-4-3-----|
|-1------1------|-1--1----1----|-------------------------|-----------6---------6-3-|


|-------------------------|-------------------------|
|-6-8-8-8-8-8-8-8-8-8-8-8-|-6-8-8-8-8-8-8-8-8-8-8-8-|
|-5-7-7-7-7-7-7-7-7-7-7-7-|-5-7-7-7-7-7-7-7-7-7-7-7-|
|-------------------------|-------------------------|
|-------------------------|-------------------------|
|-------------------------|-------------------------|


  CHORUS
|-------------------------|-------------------------|-------------------------|-------------------------|
|-------------------------|-------------------------|-------------------------|-------------------------|
|-5-5-5-5-5-5-5-5-5-5-5-5-|-5-5-5-5-5-5-5-5-5-5-5-5-|-8-8-8-8-8-8-8-8-8-8-8-8-|-8-8-8-8-8-8-8-8-8-8-8-8-|
|-5-5-5-5-5-5-5-5-5-5-5-5-|-5-5-5-5-5-5-5-5-5-5-5-5-|-8-8-8-8-8-8-8-8-8-8-8-8-|-8-8-8-8-8-8-8-8-8-8-8-8-|
|-3-3-3-3-3-3-3-3-3-3-3-3-|-3-3-3-3-3-3-3-3-3-3-3-3-|-6-6-6-6-6-6-6-6-6-6-6-6-|-6-6-6-6-6-6-6-6-6-6-6-6-|
|-------------------------|-------------------------|-------------------------|-------------------------|


|-------------------------------------|-------------------------|
|-------------------------------------|-------------------------|
|-10-10-10-10-10-10-10-10-10-10-10-10-|-------------------------|
|-10-10-10-10-10-10-10-10-10-10-10-10-|-8-8-8-8-8-8-8-8-8-8-8-8-|
|--8--8--8--8--8--8--8--8--8--8--8--8-|-8-8-8-8-8-8-8-8-8-8-8-8-|
|-------------------------------------|-6-6-6-6-6-6-6-6-6-6-6-6-|


|-------------------------|-------------------------|
|-----4-----------4-------|-----4-----------4-------|
|-3-5---5-5-5-3-5---5-3---|-3-5---5-5-5-3-5---5-3---|
|-----------------------5-|-----------------------5-|
|-------------------------|-------------------------|
|-------------------------|-------------------------|


   SOLO
||------11------11------11--|-----11------11------11--|-----15------15------15--|-----15------15------15----|
||o-11------11------11------|-11------11------11------|-15------15------15------|-15------15------15--------|
||--------------------------|-------------------------|-------------------------|---------------------------|
||--------------------------|-------------------------|-------------------------|---------------------------|
||o-------------------------|-------------------------|-------------------------|---------------------------|
||--------------------------|-------------------------|-------------------------|---------------------------|

                                                     1.
|-----13------13------13--|-----13------13------13--|-------------------------|----------------------------||
|-13------13------13------|-13------13------13------|-----11--13--14--13--11--|-----11--13--14--13--11----o||
|-------------------------|-------------------------|-12----------12--12--12--|-12----------12--12--12-----||
|-------------------------|-------------------------|-------------------------|----------------------------||
|-------------------------|-------------------------|-------------------------|---------------------------o||
|-------------------------|-------------------------|-------------------------|----------------------------||

  2.
|-13b15------13--10---------|-10---------10--------------|
|--------------------13b15--|-----13b15------13-11-------|
|---------------------------|----------------------12----|
|---------------------------|----------------------------|
|---------------------------|----------------------------|
|---------------------------|----------------------------|


  LAST BARS OF FINAL CHORUS
|-------------------------|-------------------------|
|-------------------------|-------------------------|
|-------------------------|-------------------------|
|-6-6-6-6-6-6-6-6-6-6-6-6-|-5-5-5-5-5-5-5-5-5-5-5-5-|
|-6-6-6-6-6-6-6-6-6-6-6-6-|-5-5-5-5-5-5-5-5-5-5-5-5-|
|-4-4-4-4-4-4-4-4-4-4-4-4-|-3-3-3-3-3-3-3-3-3-3-3-3-|


|--------------------------------|--------------------------------|
|------9---------------9---------|------9---------------9---------|
|-8-10---10-10-10-8-10---10-8----|-8-10---10-10-10-8-10---10-8----|
|-----------------------------10-|-----------------------------10-|
|--------------------------------|--------------------------------|
|--------------------------------|--------------------------------|


|-------------------------|-------------------------|------|
|-------------------------|-------------------------|------|
|-------------------------|-------------------------|------|
|-6-6-6-6-6-6-6-6-6-6-6-6-|-5-5-5-5-5-5-5-5-5-5-5-5-|-3----|
|-6-6-6-6-6-6-6-6-6-6-6-6-|-5-5-5-5-5-5-5-5-5-5-5-5-|-3----|
|-4-4-4-4-4-4-4-4-4-4-4-4-|-3-3-3-3-3-3-3-3-3-3-3-3-|-1----|            
Submit corrections


        Behold The Colossus  lessons Hard to play? Try these video lessons and learn fast Behold The Colossus  lessons
        
↑ Back to top | Tablatures and chords for acoustic guitar and electric guitar, ukulele, drums are parodies/interpretations of the original songs. You may use it for private study, scholarship, research or language learning purposes only